  0
SECTION
  2
HEADER
  9
$ACADVER
  1
AC1009
  9
$INSBASE
 10
0.0
 20
0.0
 30
0.0
  9
$EXTMIN
 10
-800.05492744973753
 20
-1204.432801395556
 30
-0.0015258207003583
  9
$EXTMAX
 10
1000.05493583164
 20
1471.867842570083
 30
0.0000000349246037
  9
$LIMMIN
 10
0.0
 20
0.0
  9
$LIMMAX
 10
0.0
 20
0.0
  9
$ORTHOMODE
 70
     0
  9
$REGENMODE
 70
     1
  9
$FILLMODE
 70
     1
  9
$QTEXTMODE
 70
     0
  9
$MIRRTEXT
 70
     1
  9
$DRAGMODE
 70
     2
  9
$LTSCALE
 40
50.799999999999997
  9
$OSMODE
 70
   231
  9
$ATTMODE
 70
     1
  9
$TEXTSIZE
 40
0.0
  9
$TRACEWID
 40
1.0
  9
$TEXTSTYLE
  7
STANDARD
  9
$CLAYER
  8
DATA
  9
$CELTYPE
  6
CONTINUOUS
  9
$CECOLOR
 62
   256
  9
$DIMSCALE
 40
1.0
  9
$DIMASZ
 40
0.18
  9
$DIMEXO
 40
0.0625
  9
$DIMDLI
 40
0.38
  9
$DIMRND
 40
0.0
  9
$DIMDLE
 40
0.0
  9
$DIMEXE
 40
0.18
  9
$DIMTP
 40
0.0
  9
$DIMTM
 40
0.0
  9
$DIMTXT
 40
0.18
  9
$DIMCEN
 40
0.09
  9
$DIMTSZ
 40
0.0
  9
$DIMTOL
 70
     0
  9
$DIMLIM
 70
     0
  9
$DIMTIH
 70
     1
  9
$DIMTOH
 70
     1
  9
$DIMSE1
 70
     0
  9
$DIMSE2
 70
     0
  9
$DIMTAD
 70
     0
  9
$DIMZIN
 70
     0
  9
$DIMBLK
  1

  9
$DIMASO
 70
     1
  9
$DIMSHO
 70
     1
  9
$DIMPOST
  1

  9
$DIMAPOST
  1

  9
$DIMALT
 70
     0
  9
$DIMALTD
 70
     2
  9
$DIMALTF
 40
25.399999999999999
  9
$DIMLFAC
 40
1.0
  9
$DIMTOFL
 70
     0
  9
$DIMTVP
 40
0.0
  9
$DIMTIX
 70
     0
  9
$DIMSOXD
 70
     0
  9
$DIMSAH
 70
     0
  9
$DIMBLK1
  1

  9
$DIMBLK2
  1

  9
$DIMSTYLE
  2
STANDARD
  9
$DIMCLRD
 70
     0
  9
$DIMCLRE
 70
     0
  9
$DIMCLRT
 70
     0
  9
$DIMTFAC
 40
1.0
  9
$DIMGAP
 40
0.09
  9
$LUNITS
 70
     2
  9
$LUPREC
 70
     4
  9
$SKETCHINC
 40
0.1
  9
$FILLETRAD
 40
0.0
  9
$AUNITS
 70
     0
  9
$AUPREC
 70
     0
  9
$MENU
  1
acad
  9
$ELEVATION
 40
0.0
  9
$PELEVATION
 40
0.0
  9
$THICKNESS
 40
0.0
  9
$LIMCHECK
 70
     0
  9
$BLIPMODE
 70
     0
  9
$CHAMFERA
 40
0.0
  9
$CHAMFERB
 40
0.0
  9
$SKPOLY
 70
     0
  9
$TDCREATE
 40
2453712.6158680562
  9
$TDUPDATE
 40
2453712.6187909031
  9
$TDINDWG
 40
0.0010757639
  9
$TDUSRTIMER
 40
0.0010755903
  9
$USRTIMER
 70
     1
  9
$ANGBASE
 50
0.0
  9
$ANGDIR
 70
     0
  9
$PDMODE
 70
     1
  9
$PDSIZE
 40
-2.0
  9
$PLINEWID
 40
0.0
  9
$COORDS
 70
     2
  9
$SPLFRAME
 70
     0
  9
$SPLINETYPE
 70
     6
  9
$SPLINESEGS
 70
     8
  9
$ATTDIA
 70
     0
  9
$ATTREQ
 70
     1
  9
$HANDLING
 70
     1
  9
$HANDSEED
  5
934
  9
$SURFTAB1
 70
     6
  9
$SURFTAB2
 70
     6
  9
$SURFTYPE
 70
     6
  9
$SURFU
 70
     6
  9
$SURFV
 70
     6
  9
$UCSNAME
  2

  9
$UCSORG
 10
0.0
 20
0.0
 30
0.0
  9
$UCSXDIR
 10
1.0
 20
0.0
 30
0.0
  9
$UCSYDIR
 10
0.0
 20
1.0
 30
0.0
  9
$PUCSNAME
  2

  9
$PUCSORG
 10
0.0
 20
0.0
 30
0.0
  9
$PUCSXDIR
 10
1.0
 20
0.0
 30
0.0
  9
$PUCSYDIR
 10
0.0
 20
1.0
 30
0.0
  9
$USERI1
 70
     0
  9
$USERI2
 70
     0
  9
$USERI3
 70
     0
  9
$USERI4
 70
     0
  9
$USERI5
 70
     0
  9
$USERR1
 40
0.0
  9
$USERR2
 40
0.0
  9
$USERR3
 40
0.0
  9
$USERR4
 40
0.0
  9
$USERR5
 40
0.0
  9
$WORLDVIEW
 70
     1
  9
$SHADEDGE
 70
     3
  9
$SHADEDIF
 70
    70
  9
$TILEMODE
 70
     1
  9
$MAXACTVP
 70
    64
  9
$PLIMCHECK
 70
     0
  9
$PEXTMIN
 10
1.0000000000000000E+020
 20
1.0000000000000000E+020
 30
1.0000000000000000E+020
  9
$PEXTMAX
 10
-1.0000000000000000E+020
 20
-1.0000000000000000E+020
 30
-1.0000000000000000E+020
  9
$PLIMMIN
 10
0.0
 20
0.0
  9
$PLIMMAX
 10
12.0
 20
9.0
  9
$UNITMODE
 70
     0
  9
$VISRETAIN
 70
     0
  9
$PLINEGEN
 70
     1
  9
$PSLTSCALE
 70
     0
  0
ENDSEC
  0
SECTION
  2
TABLES
  0
TABLE
  2
VPORT
 70
    10
  0
VPORT
  2
*ACTIVE
 70
     0
 10
0.0
 20
0.0
 11
1.0
 21
1.0
 12
100.0000041909516
 22
133.7175205872631
 13
0.0
 23
0.0
 14
1.0
 24
1.0
 15
0.0
 25
0.0
 16
0.0
 26
0.0
 36
1.0
 17
0.0
 27
0.0
 37
0.0
 40
2698.4493389501822
 41
1.665745856353591
 42
50.0
 43
0.0
 44
0.0
 50
0.0
 51
0.0
 71
     0
 72
  2000
 73
     1
 74
     1
 75
     0
 76
     0
 77
     0
 78
     0
  0
ENDTAB
  0
TABLE
  2
LTYPE
 70
    13
  0
LTYPE
  2
CONTINUOUS
 70
     0
  3
Solid line
 72
    65
 73
     0
 40
0.0
  0
LTYPE
  2
STYLE_11
 70
     0
  3

 72
    65
 73
     2
 40
0.2812500000000001
 49
0.1875
 49
-0.09375
  0
LTYPE
  2
STYLE_12
 70
     0
  3

 72
    65
 73
     4
 40
0.7500000000000001
 49
0.3750000000000001
 49
-0.1875
 49
0.0005
 49
-0.187
  0
ENDTAB
  0
TABLE
  2
LAYER
 70
    10
  0
LAYER
  2
0
 70
     0
 62
     7
  6
CONTINUOUS
  0
LAYER
  2
DATA
 70
     0
 62
     7
  6
CONTINUOUS
  0
LAYER
  2
HIBINO-BASE
 70
     0
 62
     7
  6
CONTINUOUS
  0
LAYER
  2
SIDE-DOWN-18_5
 70
     0
 62
     7
  6
CONTINUOUS
  0
LAYER
  2
SIDE-UP18_5
 70
     0
 62
     7
  6
CONTINUOUS
  0
LAYER
  2
TOP22
 70
     0
 62
     7
  6
CONTINUOUS
  0
LAYER
  2
BRACKET
 70
     0
 62
     7
  6
CONTINUOUS
  0
LAYER
  2
PATTERN_FILL
 70
     0
 62
     7
  6
CONTINUOUS
  0
LAYER
  2
SPEC
 70
     0
 62
     7
  6
CONTINUOUS
  0
LAYER
  2
DIMNSIONS
 70
     0
 62
     7
  6
CONTINUOUS
  0
ENDTAB
  0
TABLE
  2
STYLE
 70
     2
  0
STYLE
  2
STANDARD
 70
     0
 40
0.0
 41
1.0
 50
0.0
 71
     0
 42
0.0
  3
txt
  4
BIGFONT.SHX
  0
ENDTAB
  0
TABLE
  2
VIEW
 70
     0
  0
ENDTAB
  0
TABLE
  2
UCS
 70
     0
  0
ENDTAB
  0
TABLE
  2
APPID
 70
     1
  0
APPID
  2
ACAD
 70
     0
  0
ENDTAB
  0
TABLE
  2
DIMSTYLE
 70
     1
  0
DIMSTYLE
  2
STANDARD
 70
     0
  3

  4

  5

  6

  7

 40
1.0
 41
0.18
 42
0.0625
 43
0.38
 44
0.18
 45
0.0
 46
0.0
 47
0.0
 48
0.0
140
0.18
141
0.09
142
0.0
143
25.399999999999999
144
1.0
145
0.0
146
1.0
147
0.09
 71
     0
 72
     0
 73
     1
 74
     1
 75
     0
 76
     0
 77
     0
 78
     0
170
     0
171
     2
172
     0
173
     0
174
     0
175
     0
176
     0
177
     0
178
     0
  0
ENDTAB
  0
ENDSEC
  0
SECTION
  2
BLOCKS
  0
BLOCK
  8
0
  2
$MODEL_SPACE
 70
     0
 10
0.0
 20
0.0
 30
0.0
  3
$MODEL_SPACE
  1

  0
ENDBLK
  5
740
  8
0
  0
BLOCK
 67
     1
  8
0
  2
$PAPER_SPACE
 70
     0
 10
0.0
 20
0.0
 30
0.0
  3
$PAPER_SPACE
  1

  0
ENDBLK
  5
73C
 67
     1
  8
0
  0
ENDSEC
  0
SECTION
  2
ENTITIES
  0
LINE
  5
33
  8
HIBINO-BASE
  6
CONTINUOUS
 62
     7
 10
-800.0
 20
1471.786335
 30
0.0
 11
1000.0
 21
1471.786335
 31
0.0
  0
LINE
  5
34
  8
HIBINO-BASE
  6
CONTINUOUS
 62
     7
 10
1000.0
 20
-1128.213665
 30
0.0
 11
-800.0
 21
-1128.213665
 31
0.0
  0
LINE
  5
35
  8
HIBINO-BASE
  6
CONTINUOUS
 62
     7
 10
-800.0
 20
-1128.213665
 30
0.0
 11
-800.0
 21
1471.786335
 31
0.0
  0
TEXT
  5
36
  8
HIBINO-BASE
 62
     7
 10
-728.15999999999985
 20
-1192.3004430000001
 30
0.0
 40
36.000441796874988
  1
Hibino Corporation
 41
0.8
 11
-728.15999999999985
 21
-1156.300001203125
 31
0.0
 73
     3
  0
LINE
  5
37
  8
HIBINO-BASE
  6
CONTINUOUS
 62
     7
 10
1000.0
 20
1471.786335
 30
0.0
 11
1000.0
 21
-1128.213665
 31
0.0
  0
LINE
  5
38
  8
HIBINO-BASE
  6
CONTINUOUS
 62
     7
 10
100.0
 20
-903.21366500000011
 30
0.0
 11
1000.0
 21
-903.21366500000011
 31
0.0
  0
LINE
  5
39
  8
HIBINO-BASE
  6
CONTINUOUS
 62
     7
 10
100.0
 20
-1128.213665
 30
0.0
 11
100.0
 21
-903.21366500000011
 31
0.0
  0
TEXT
  5
3A
  8
HIBINO-BASE
 62
     7
 10
109.0
 20
-928.30059833333337
 30
0.0
 40
16.288411458333329
  1
NOTE
 41
0.8
 11
109.0
 21
-912.012186875
 31
0.0
 73
     3
  0
LINE
  5
3B
  8
HIBINO-BASE
  6
CONTINUOUS
 62
     7
 10
450.0
 20
-1128.213665
 30
0.0
 11
450.0
 21
-903.21366500000011
 31
0.0
  0
TEXT
  5
3C
  8
HIBINO-BASE
 62
     7
 10
459.0
 20
-928.30059833333337
 30
0.0
 40
16.288411458333329
  1
TITLE
 41
0.8
 11
459.0
 21
-912.012186875
 31
0.0
 73
     3
  0
TEXT
  5
3D
  8
HIBINO-BASE
 62
     7
 10
600.68389999999988
 20
-1192.3004430000001
 30
0.0
 40
36.000441796874988
  1
ヒビノ株式会社
 41
0.8
 11
600.68389999999988
 21
-1156.300001203125
 31
0.0
 73
     3
  0
LINE
  5
3E
  8
HIBINO-BASE
  6
CONTINUOUS
 62
     7
 10
100.0
 20
-1028.213665
 30
0.0
 11
1000.0
 21
-1028.213665
 31
0.0
  0
TEXT
  5
3F
  8
HIBINO-BASE
 62
     7
 10
584.0
 20
-1052.737398333333
 30
0.0
 40
16.288411458333329
  1
DRAWN
 41
0.8
 11
584.0
 21
-1036.4489868749999
 31
0.0
 73
     3
  0
TEXT
  5
40
  8
HIBINO-BASE
 62
     7
 10
334.0
 20
-1052.737398333333
 30
0.0
 40
16.288411458333329
  1
DATE
 41
0.8
 11
334.0
 21
-1036.4489868749999
 31
0.0
 73
     3
  0
TEXT
  5
41
  8
HIBINO-BASE
 62
     7
 10
111.0
 20
-1054.408226999999
 30
0.0
 40
16.288437109374989
  1
図面サイズ
 41
0.8
 11
111.0
 21
-1038.1197898906239
 31
0.0
 73
     3
  0
TEXT
  5
42
  8
HIBINO-BASE
 62
     7
 10
234.0
 20
-1052.737398333333
 30
0.0
 40
16.288411458333329
  1
SCALE
 41
0.8
 11
234.0
 21
-1036.4489868749999
 31
0.0
 73
     3
  0
TEXT
  5
43
  8
HIBINO-BASE
 62
     7
 10
459.0
 20
-1052.737398333333
 30
0.0
 40
16.288411458333329
  1
DESIGN
 41
0.8
 11
459.0
 21
-1036.4489868749999
 31
0.0
 73
     3
  0
TEXT
  5
44
  8
HIBINO-BASE
 62
     7
 10
834.0
 20
-1052.737398333333
 30
0.0
 40
16.288411458333329
  1
DRAWING NO.
 41
0.8
 11
834.0
 21
-1036.4489868749999
 31
0.0
 73
     3
  0
TEXT
  5
45
  8
HIBINO-BASE
 62
     7
 10
708.99999999999977
 20
-1052.737398333333
 30
0.0
 40
16.288411458333329
  1
CHECK
 41
0.8
 11
708.99999999999977
 21
-1036.4489868749999
 31
0.0
 73
     3
  0
LINE
  5
46
  8
HIBINO-BASE
  6
CONTINUOUS
 62
     7
 10
243.75
 20
-1115.713665
 30
0.0
 11
281.25
 21
-1078.213665
 31
0.0
  0
TEXT
  5
47
  8
HIBINO-BASE
 62
     7
 10
237.5
 20
-1089.3030983333331
 30
0.0
 40
16.288411458333329
  1
1
 41
0.8
 11
237.5
 21
-1073.0146868749989
 31
0.0
 73
     3
  0
LINE
  5
48
  8
HIBINO-BASE
  6
CONTINUOUS
 62
     7
 10
225.0
 20
-1128.213665
 30
0.0
 11
225.0
 21
-1028.213665
 31
0.0
  0
LINE
  5
49
  8
HIBINO-BASE
  6
CONTINUOUS
 62
     7
 10
325.0
 20
-1128.213665
 30
0.0
 11
325.0
 21
-1028.213665
 31
0.0
  0
LINE
  5
4A
  8
HIBINO-BASE
  6
CONTINUOUS
 62
     7
 10
574.99999999999989
 20
-1028.213665
 30
0.0
 11
574.99999999999989
 21
-1128.213665
 31
0.0
  0
LINE
  5
4B
  8
HIBINO-BASE
  6
CONTINUOUS
 62
     7
 10
825.0
 20
-1028.213665
 30
0.0
 11
825.0
 21
-1128.213665
 31
0.0
  0
LINE
  5
4C
  8
HIBINO-BASE
  6
CONTINUOUS
 62
     7
 10
699.99999999999989
 20
-1128.213665
 30
0.0
 11
699.99999999999989
 21
-1028.213665
 31
0.0
  0
TEXT
  5
4D
  8
HIBINO-BASE
 62
     7
 10
333.5653999999999
 20
-1099.5771983333329
 30
0.0
 40
16.288411458333329
  1
'05.12.
 41
0.8
 11
333.5653999999999
 21
-1083.2887868749999
 31
0.0
 73
     3
  0
TEXT
  5
4E
  8
HIBINO-BASE
 62
     7
 10
275.0
 20
-1108.0530983333331
 30
0.0
 40
16.288411458333329
  1
10
 41
0.8
 11
275.0
 21
-1091.7646868749989
 31
0.0
 73
     3
  0
TEXT
  5
4F
  8
HIBINO-BASE
 62
     7
 10
590.05810011034623
 20
-1099.5771983333329
 30
0.0
 40
16.288411458333329
  1
N.Sasaki
 41
0.8
 11
590.05810011034623
 21
-1083.2887868749999
 31
0.0
 73
     3
  0
TEXT
  5
50
  8
HIBINO-BASE
 62
     7
 10
138.83333333333351
 20
-1108.453665
 30
0.0
 40
32.576822916666671
  1
A4
 41
0.8
 11
138.83333333333351
 21
-1075.876842083333
 31
0.0
 73
     3
  0
LINE
  5
51
  8
SIDE-DOWN-18_5
  6
STYLE_11
 62
     7
 10
-17.740235898560069
 20
-852.08229045787891
 30
0.0
 11
175.15954355932669
 21
-768.20706855994069
 31
0.0
  0
TEXT
  5
52
  8
SIDE-DOWN-18_5
 62
     7
 10
-167.7490234375
 20
-865.106201171875
 30
0.0
 40
15.49959182739258
  1
注1
 50
90.0
 41
0.8
 11
-183.24861526489249
 21
-865.106201171875
 31
0.0
 73
     3
  0
ARC
  5
53
  8
SIDE-DOWN-18_5
  6
STYLE_11
 62
     7
 10
-28.257881642976841
 20
-848.99564159616637
 30
0.0
 40
2.5400000000000769
 50
198.49999999999909
 51
288.50000000000568
  0
LINE
  5
54
  8
SIDE-DOWN-18_5
  6
STYLE_11
 62
     7
 10
-17.842829368797549
 20
-848.18922431541921
 30
0.0
 11
-27.451927815708149
 21
-851.40438368039008
 31
0.0
  0
ARC
  5
55
  8
SIDE-DOWN-18_5
  6
STYLE_11
 62
     7
 10
-19.00627429250472
 20
-849.17063713440155
 30
0.0
 40
3.1749999999997911
 50
198.50000000000199
 51
293.5000000000004
  0
LINE
  5
56
  8
SIDE-DOWN-18_5
  6
STYLE_11
 62
     7
 10
-22.017201897784179
 20
-850.17807941848764
 30
0.0
 11
-22.195378140147589
 21
-849.64556676221753
 31
0.0
  0
LINE
  5
57
  8
SIDE-DOWN-18_5
  6
STYLE_11
 62
     7
 10
11.58954833572896
 20
-801.23424207032406
 30
0.0
 11
22.717085252947509
 21
-834.49094432718152
 31
0.0
  0
LINE
  5
58
  8
SIDE-DOWN-18_5
  6
STYLE_11
 62
     7
 10
-18.107618580296741
 20
-803.83240890537365
 30
0.0
 11
-3.9672181206765482
 21
-846.09361112620343
 31
0.0
  0
LINE
  5
59
  8
SIDE-DOWN-18_5
  6
STYLE_11
 62
     7
 10
-32.269837136471793
 20
-805.07144314279515
 30
0.0
 11
-17.842829368797549
 21
-848.18922431541921
 31
0.0
  0
LINE
  5
5A
  8
SIDE-DOWN-18_5
  6
STYLE_11
 62
     7
 10
-45.253061335221453
 20
-806.20732868435539
 30
0.0
 11
-30.666623727200211
 21
-849.8015954234354
 31
0.0
  0
LINE
  5
5B
  8
SIDE-DOWN-18_5
  6
STYLE_11
 62
     7
 10
-138.8019558272558
 20
-490.26694854319328
 30
0.0
 11
-110.0000000000004
 21
-483.35221214515542
 31
0.0
  0
LINE
  5
5C
  8
SIDE-DOWN-18_5
  6
STYLE_11
 62
     7
 10
-136.5409768654913
 20
-493.43785578661169
 30
0.0
 11
-110.0
 21
-572.76047424101273
 31
0.0
  0
LINE
  5
5D
  8
SIDE-DOWN-18_5
  6
STYLE_11
 62
     7
 10
-147.75286356935661
 20
-499.86771106307521
 30
0.0
 11
-110.0
 21
-612.6991267132945
 31
0.0
  0
ARC
  5
5E
  8
SIDE-DOWN-18_5
  6
STYLE_11
 62
     7
 10
-145.3441214851332
 20
-499.06175723580623
 30
0.0
 40
2.540000000000004
 50
108.4999999999943
 51
198.50000000000239
  0
LINE
  5
5F
  8
SIDE-DOWN-18_5
  6
STYLE_11
 62
     7
 10
-146.1500753124019
 20
-496.65301515158251
 30
0.0
 11
-136.5409768654913
 21
-493.43785578661169
 31
0.0
  0
ARC
  5
60
  8
SIDE-DOWN-18_5
  6
STYLE_11
 62
     7
 10
-138.06077427392569
 20
-493.35424329305391
 30
0.0
 40
3.1749999999999159
 50
103.4999999999979
 51
198.50000000000119
  0
LINE
  5
61
  8
SIDE-DOWN-18_5
  6
STYLE_11
 62
     7
 10
-141.07170187920559
 20
-494.36168557714012
 30
0.0
 11
-140.89352563684179
 21
-494.89419823341012
 31
0.0
  0
LINE
  5
62
  8
SIDE-DOWN-18_5
  6
STYLE_11
 62
     7
 10
-124.1982575586831
 20
-486.76091150288551
 30
0.0
 11
-110.0000000000004
 21
-529.19503036567255
 31
0.0
  0
LINE
  5
63
  8
SIDE-DOWN-18_5
  6
STYLE_11
 62
     7
 10
130.1037617361207
 20
-624.40108470037262
 30
0.0
 11
176.90719060813669
 21
-764.28178877497271
 31
0.0
  0
ARC
  5
64
  8
SIDE-DOWN-18_5
  6
STYLE_11
 62
     7
 10
173.8915213845807
 20
-765.29081758234065
 30
0.0
 40
3.1800000000001858
 50
293.50000266343619
 51
18.499999999994142
  0
LINE
  5
65
  8
SIDE-DOWN-18_5
  6
CONTINUOUS
 62
     7
 10
-108.74200880000031
 20
-799.99999999999125
 30
0.0
 11
-145.0
 21
-799.99999999999125
 31
0.0
  0
LINE
  5
66
  8
SIDE-DOWN-18_5
  6
CONTINUOUS
 62
     7
 10
-39.006274292504727
 20
-852.34563713439275
 30
0.0
 11
-145.0
 21
-852.34563713439275
 31
0.0
  0
LINE
  5
67
  8
SIDE-DOWN-18_5
  6
CONTINUOUS
 62
     7
 10
-125.0
 20
-799.99999999999125
 30
0.0
 11
-125.0
 21
-852.34563713439275
 31
0.0
  0
LINE
  5
68
  8
SIDE-DOWN-18_5
  6
CONTINUOUS
 62
     7
 10
-125.0
 20
-799.99999999999125
 30
0.0
 11
-118.2996020484976
 21
-825.00622558592875
 31
0.0
  0
LINE
  5
69
  8
SIDE-DOWN-18_5
  6
CONTINUOUS
 62
     7
 10
-125.0
 20
-799.99999999999125
 30
0.0
 11
-131.7003979515024
 21
-825.00622558592875
 31
0.0
  0
LINE
  5
6A
  8
SIDE-DOWN-18_5
  6
CONTINUOUS
 62
     7
 10
-125.0
 20
-852.34563713439275
 30
0.0
 11
-131.7003979515024
 21
-827.3394115484549
 31
0.0
  0
LINE
  5
6B
  8
SIDE-DOWN-18_5
  6
CONTINUOUS
 62
     7
 10
-125.0
 20
-852.34563713439275
 30
0.0
 11
-118.2996020484976
 21
-827.3394115484549
 31
0.0
  0
TEXT
  5
6C
  8
SIDE-DOWN-18_5
 62
     7
 10
-134.93888888888881
 20
-843.81170745608074
 30
0.0
 40
27.147352430555561
  1
52
 50
90.0
 41
0.8
 11
-162.08624131944441
 21
-843.81170745608074
 31
0.0
 73
     3
  0
LINE
  5
6D
  8
SIDE-UP18_5
  6
STYLE_11
 62
     7
 10
-17.9439946064963
 20
-366.32884952930328
 30
0.0
 11
174.95578485138961
 21
-450.2040714272452
 31
0.0
  0
LINE
  5
6E
  8
SIDE-UP18_5
  6
STYLE_11
 62
     7
 10
-147.95663033683101
 20
-718.5434530115283
 30
0.0
 11
-110.0
 21
-605.10304268745051
 31
0.0
  0
LINE
  5
6F
  8
SIDE-UP18_5
  6
STYLE_11
 62
     7
 10
-136.74474363296619
 20
-724.97330828799193
 30
0.0
 11
-110.0
 21
-645.04169515973194
 31
0.0
  0
LINE
  5
70
  8
SIDE-UP18_5
  6
STYLE_11
 62
     7
 10
-139.00571453519251
 20
-728.14419144398914
 30
0.0
 11
-110.0
 21
-735.10784596976316
 31
0.0
  0
ARC
  5
71
  8
SIDE-UP18_5
  6
STYLE_11
 62
     7
 10
-145.54788825260761
 20
-719.34940683879734
 30
0.0
 40
2.5400000000000769
 50
161.50000000000091
 51
251.5000000000033
  0
LINE
  5
72
  8
SIDE-UP18_5
  6
STYLE_11
 62
     7
 10
-136.74474363296619
 20
-724.97330828799193
 30
0.0
 11
-146.3538420798763
 21
-721.75814892302083
 31
0.0
  0
ARC
  5
73
  8
SIDE-UP18_5
  6
STYLE_11
 62
     7
 10
-138.26454104140021
 20
-725.05692078154948
 30
0.0
 40
3.1750000000002219
 50
161.50000000000051
 51
256.49999999999409
  0
LINE
  5
74
  8
SIDE-UP18_5
  6
STYLE_11
 62
     7
 10
-141.27546864668051
 20
-724.04947849746316
 30
0.0
 11
-141.0972924043167
 21
-723.51696584119338
 31
0.0
  0
LINE
  5
75
  8
SIDE-UP18_5
  6
STYLE_11
 62
     7
 10
-124.4020162666197
 20
-731.65022848429714
 30
0.0
 11
-110.0000000000004
 21
-688.60713903507281
 31
0.0
  0
TEXT
  5
76
  8
SIDE-UP18_5
 62
     7
 10
-242.7490234375
 20
-440.106201171875
 30
0.0
 40
15.49959182739258
  1
注1
 50
90.0
 41
0.8
 11
-258.24861526489258
 21
-440.106201171875
 31
0.0
 73
     3
  0
TEXT
  5
77
  8
SIDE-UP18_5
 62
     7
 10
-165.106201171875
 20
-282.2509765625
 30
0.0
 40
15.49959182739258
  1
注1
 41
0.8
 11
-165.106201171875
 21
-266.75138473510742
 31
0.0
 73
     3
  0
ARC
  5
78
  8
SIDE-UP18_5
  6
STYLE_11
 62
     7
 10
-28.4616484104513
 20
-369.41552247843703
 30
0.0
 40
2.5399999999997891
 50
71.500000000004093
 51
161.50000000000551
  0
LINE
  5
79
  8
SIDE-UP18_5
  6
STYLE_11
 62
     7
 10
-27.655694583182608
 20
-367.00678039421342
 30
0.0
 11
-18.046596136272012
 21
-370.22193975918401
 31
0.0
  0
ARC
  5
7A
  8
SIDE-UP18_5
  6
STYLE_11
 62
     7
 10
-19.21004105997919
 20
-369.24052694020219
 30
0.0
 40
3.1750000000000922
 50
66.49999999999919
 51
161.50000000000091
  0
LINE
  5
7B
  8
SIDE-UP18_5
  6
STYLE_11
 62
     7
 10
-22.22096866525909
 20
-368.23308465611609
 30
0.0
 11
-22.3991449076225
 21
-368.76559731238581
 31
0.0
  0
LINE
  5
7C
  8
SIDE-UP18_5
  6
STYLE_11
 62
     7
 10
11.380797183325271
 20
-417.1918187605657
 30
0.0
 11
22.51332654501083
 21
-383.92019566000158
 31
0.0
  0
LINE
  5
7D
  8
SIDE-UP18_5
  6
STYLE_11
 62
     7
 10
-18.316369732700888
 20
-414.59365192551593
 30
0.0
 11
-4.1709768286132336
 21
-372.31752886097939
 31
0.0
  0
LINE
  5
7E
  8
SIDE-UP18_5
  6
STYLE_11
 62
     7
 10
-32.47858828887594
 20
-413.35461768809432
 30
0.0
 11
-18.046596136272012
 21
-370.22193975918401
 31
0.0
  0
LINE
  5
7F
  8
SIDE-UP18_5
  6
STYLE_11
 62
     7
 10
-45.461812487625153
 20
-412.21873214653408
 30
0.0
 11
-30.870390494675132
 21
-368.60956865116822
 31
0.0
  0
ARC
  5
80
  8
SIDE-UP18_5
  6
STYLE_11
 62
     7
 10
173.6877626766431
 20
-453.12032240484518
 30
0.0
 40
3.1799999999997222
 50
341.50000000000318
 51
66.49999733657171
  0
LINE
  5
81
  8
SIDE-UP18_5
  6
STYLE_11
 62
     7
 10
130.1037617361203
 20
-593.40108470037228
 30
0.0
 11
176.70343190019861
 21
-454.12935121221301
 31
0.0
  0
LINE
  5
82
  8
SIDE-UP18_5
  6
CONTINUOUS
 62
     7
 10
-39.210041059979183
 20
-366.06552694020178
 30
0.0
 11
-220.0
 21
-366.06552694020178
 31
0.0
  0
LINE
  5
83
  8
SIDE-UP18_5
  6
CONTINUOUS
 62
     7
 10
-108.74200880000031
 20
-418.44434959999961
 30
0.0
 11
-220.0
 21
-418.44434959999961
 31
0.0
  0
LINE
  5
84
  8
SIDE-UP18_5
  6
CONTINUOUS
 62
     7
 10
-200.0
 20
-366.06552694020178
 30
0.0
 11
-200.0
 21
-418.44434959999961
 31
0.0
  0
LINE
  5
85
  8
SIDE-UP18_5
  6
CONTINUOUS
 62
     7
 10
-200.0
 20
-366.06552694020178
 30
0.0
 11
-193.2996020484976
 21
-391.07175252613939
 31
0.0
  0
LINE
  5
86
  8
SIDE-UP18_5
  6
CONTINUOUS
 62
     7
 10
-200.0
 20
-366.06552694020178
 30
0.0
 11
-206.7003979515024
 21
-391.07175252613922
 31
0.0
  0
LINE
  5
87
  8
SIDE-UP18_5
  6
CONTINUOUS
 62
     7
 10
-200.0
 20
-418.44434959999961
 30
0.0
 11
-206.7003979515024
 21
-393.43812401406223
 31
0.0
  0
LINE
  5
88
  8
SIDE-UP18_5
  6
CONTINUOUS
 62
     7
 10
-200.0
 20
-418.44434959999961
 30
0.0
 11
-193.2996020484976
 21
-393.43812401406223
 31
0.0
  0
TEXT
  5
89
  8
SIDE-UP18_5
 62
     7
 10
-209.93888888888901
 20
-409.89382715898972
 30
0.0
 40
27.147352430555561
  1
52
 50
90.0
 41
0.8
 11
-237.08624131944461
 21
-409.89382715898972
 31
0.0
 73
     3
  0
LINE
  5
8A
  8
SIDE-UP18_5
  6
CONTINUOUS
 62
     7
 10
-148.08788825260669
 20
-699.34940683879734
 30
0.0
 11
-148.08788825260669
 21
-305.0
 31
0.0
  0
LINE
  5
8B
  8
SIDE-UP18_5
  6
CONTINUOUS
 62
     7
 10
-100.0
 20
-404.7208801000001
 30
0.0
 11
-100.0
 21
-305.0
 31
0.0
  0
LINE
  5
8C
  8
SIDE-UP18_5
  6
CONTINUOUS
 62
     7
 10
-100.0
 20
-325.0
 30
0.0
 11
-148.08788825260669
 21
-325.0
 31
0.0
  0
LINE
  5
8D
  8
SIDE-UP18_5
  6
CONTINUOUS
 62
     7
 10
-148.08788825260669
 20
-325.0
 30
0.0
 11
-198.0878882526066
 21
-325.0
 31
0.0
  0
LINE
  5
8E
  8
SIDE-UP18_5
  6
CONTINUOUS
 62
     7
 10
-148.08788825260669
 20
-325.0
 30
0.0
 11
-173.09411383854419
 21
-331.7003979515024
 31
0.0
  0
LINE
  5
8F
  8
SIDE-UP18_5
  6
CONTINUOUS
 62
     7
 10
-148.08788825260669
 20
-325.0
 30
0.0
 11
-173.09411383854419
 21
-318.2996020484976
 31
0.0
  0
LINE
  5
90
  8
SIDE-UP18_5
  6
CONTINUOUS
 62
     7
 10
-100.0
 20
-325.0
 30
0.0
 11
-50.000000000000021
 21
-325.0
 31
0.0
  0
LINE
  5
91
  8
SIDE-UP18_5
  6
CONTINUOUS
 62
     7
 10
-100.0
 20
-325.0
 30
0.0
 11
-74.993774414062514
 21
-318.2996020484976
 31
0.0
  0
LINE
  5
92
  8
SIDE-UP18_5
  6
CONTINUOUS
 62
     7
 10
-100.0
 20
-325.0
 30
0.0
 11
-74.993774414062514
 21
-331.7003979515024
 31
0.0
  0
TEXT
  5
93
  8
SIDE-UP18_5
 62
     7
 10
-141.68283301519219
 20
-315.06111111111107
 30
0.0
 40
27.147352430555561
  1
48
 41
0.8
 11
-141.68283301519219
 21
-287.91375868055559
 31
0.0
 73
     3
  0
LINE
  5
94
  8
TOP22
  6
STYLE_11
 62
     7
 10
-443.1850801143828
 20
14.19961644310319
 30
0.0
 11
-324.07577642397928
 21
-106.1635737518704
 31
0.0
  0
TEXT
  5
95
  8
TOP22
 62
     7
 10
-370.35727853578459
 20
-340.106201171875
 30
0.0
 40
15.49959182739258
  1
注1
 50
90.0
 41
0.8
 11
-385.85687036317722
 21
-340.106201171875
 31
0.0
 73
     3
  0
ARC
  5
96
  8
TOP22
  6
STYLE_11
 62
     7
 10
-1685.9898825335581
 20
2891.7675631533548
 30
0.0
 40
3345.298525970315
 50
289.78477805530878
 51
290.82560673770729
  0
LINE
  5
97
  8
TOP22
  6
STYLE_11
 62
     7
 10
-553.64667034998911
 20
-256.06043050846051
 30
0.0
 11
-555.02138444391119
 21
-252.65789372738661
 31
0.0
  0
ARC
  5
98
  8
TOP22
  6
STYLE_11
 62
     7
 10
-1686.926399017098
 20
2894.0855227897709
 30
0.0
 40
3345.298525970315
 50
289.87458367191778
 51
290.71261423031382
  0
LINE
  5
99
  8
TOP22
  6
STYLE_11
 62
     7
 10
-570.9388713213516
 20
-234.45036671864619
 30
0.0
 11
-565.00790805055556
 21
-245.9413975441278
 31
0.0
  0
ARC
  5
9A
  8
TOP22
  6
STYLE_11
 62
     7
 10
-553.90019264236878
 20
-240.20827811307339
 30
0.0
 40
12.5
 50
207.30000000000081
 51
289.87458367191152
  0
ARC
  5
9B
  8
TOP22
  6
STYLE_11
 62
     7
 10
-457.40106959184283
 20
0.131722386893216
 30
0.0
 40
20.000000000000021
 50
44.699999999999541
 51
111.9999999999998
  0
LINE
  5
9C
  8
TOP22
  6
STYLE_11
 62
     7
 10
-494.80000000000013
 20
6.5922685373654977
 30
0.0
 11
-464.89320146016092
 21
18.675399478228879
 31
0.0
  0
ARC
  5
9D
  8
TOP22
  6
STYLE_11
 62
     7
 10
-1685.9898825335581
 20
2891.7675631533548
 30
0.0
 40
3345.298525970315
 50
293.3220245475373
 51
294.21522194469139
  0
ARC
  5
9E
  8
TOP22
  6
STYLE_11
 62
     7
 10
-1686.926399017098
 20
2894.0855227897709
 30
0.0
 40
3345.2985259703159
 50
293.34439939044961
 51
294.12541632808222
  0
LINE
  5
9F
  8
TOP22
  6
STYLE_11
 62
     7
 10
-313.8643581381798
 20
-159.18208788349551
 30
0.0
 11
-315.23907223210199
 21
-155.7795511024222
 31
0.0
  0
ARC
  5
A0
  8
TOP22
  6
STYLE_11
 62
     7
 10
-324.69381981424482
 20
-147.60289236196061
 30
0.0
 40
12.49999999999997
 50
294.12541632808149
 51
16.699999999999189
  0
LINE
  5
A1
  8
TOP22
  6
STYLE_11
 62
     7
 10
-312.7210386286784
 20
-144.01088586383941
 30
0.0
 11
-324.07577642397928
 21
-106.1635737518704
 31
0.0
  0
TEXT
  5
A2
  8
TOP22
 62
     7
 10
-315.106201171875
 20
-82.2509765625
 30
0.0
 40
15.49959182739258
  1
注1
 41
0.8
 11
-315.106201171875
 21
-66.751384735107422
 31
0.0
 73
     3
  0
LINE
  5
A3
  8
TOP22
  6
CONTINUOUS
 62
     7
 10
-490.30000000000013
 20
-225.0
 30
0.0
 11
-305.0
 21
-225.0
 31
0.0
  0
LINE
  5
A4
  8
TOP22
  6
CONTINUOUS
 62
     7
 10
-533.64667034998899
 20
-256.06043050846051
 30
0.0
 11
-305.0
 21
-256.06043050846051
 31
0.0
  0
LINE
  5
A5
  8
TOP22
  6
CONTINUOUS
 62
     7
 10
-325.0
 20
-256.06043050846051
 30
0.0
 11
-325.0
 21
-225.0
 31
0.0
  0
LINE
  5
A6
  8
TOP22
  6
CONTINUOUS
 62
     7
 10
-325.0
 20
-225.0
 30
0.0
 11
-325.0
 21
-175.0
 31
0.0
  0
LINE
  5
A7
  8
TOP22
  6
CONTINUOUS
 62
     7
 10
-325.0
 20
-225.0
 30
0.0
 11
-331.7003979515024
 21
-199.9937744140625
 31
0.0
  0
LINE
  5
A8
  8
TOP22
  6
CONTINUOUS
 62
     7
 10
-325.0
 20
-225.0
 30
0.0
 11
-318.2996020484976
 21
-199.9937744140625
 31
0.0
  0
LINE
  5
A9
  8
TOP22
  6
CONTINUOUS
 62
     7
 10
-325.0
 20
-256.06043050846051
 30
0.0
 11
-325.0
 21
-335.27777777777783
 31
0.0
  0
LINE
  5
AA
  8
TOP22
  6
CONTINUOUS
 62
     7
 10
-325.0
 20
-256.06043050846051
 30
0.0
 11
-318.2996020484976
 21
-281.06665609439801
 31
0.0
  0
LINE
  5
AB
  8
TOP22
  6
CONTINUOUS
 62
     7
 10
-325.0
 20
-256.06043050846051
 30
0.0
 11
-331.7003979515024
 21
-281.06665609439801
 31
0.0
  0
TEXT
  5
AC
  8
TOP22
 62
     7
 10
-334.93888888888898
 20
-335.27777777777783
 30
0.0
 40
27.147352430555561
  1
31
 50
90.0
 41
0.8
 11
-362.08624131944453
 21
-335.27777777777783
 31
0.0
 73
     3
  0
LINE
  5
AD
  8
TOP22
  6
CONTINUOUS
 62
     7
 10
-312.19381981424482
 20
-127.6028923619606
 30
0.0
 11
-312.19381981424482
 21
-105.0
 31
0.0
  0
LINE
  5
AE
  8
TOP22
  6
CONTINUOUS
 62
     7
 10
-370.59999999999991
 20
-149.5168250860481
 30
0.0
 11
-370.59999999999991
 21
-105.0
 31
0.0
  0
LINE
  5
AF
  8
TOP22
  6
CONTINUOUS
 62
     7
 10
-312.19381981424482
 20
-125.0
 30
0.0
 11
-264.72222222222217
 21
-125.0
 31
0.0
  0
LINE
  5
B0
  8
TOP22
  6
CONTINUOUS
 62
     7
 10
-312.19381981424482
 20
-125.0
 30
0.0
 11
-370.59999999999991
 21
-125.0
 31
0.0
  0
LINE
  5
B1
  8
TOP22
  6
CONTINUOUS
 62
     7
 10
-312.19381981424482
 20
-125.0
 30
0.0
 11
-337.20004540018232
 21
-131.7003979515024
 31
0.0
  0
LINE
  5
B2
  8
TOP22
  6
CONTINUOUS
 62
     7
 10
-312.19381981424482
 20
-125.0
 30
0.0
 11
-337.20004540018232
 21
-118.2996020484975
 31
0.0
  0
LINE
  5
B3
  8
TOP22
  6
CONTINUOUS
 62
     7
 10
-370.59999999999991
 20
-125.0
 30
0.0
 11
-345.5937744140623
 21
-118.2996020484975
 31
0.0
  0
LINE
  5
B4
  8
TOP22
  6
CONTINUOUS
 62
     7
 10
-370.59999999999991
 20
-125.0
 30
0.0
 11
-345.5937744140623
 21
-131.7003979515024
 31
0.0
  0
TEXT
  5
B5
  8
TOP22
 62
     7
 10
-300.0
 20
-115.0611111111111
 30
0.0
 40
27.147352430555561
  1
58
 41
0.8
 11
-300.0
 21
-87.91375868055556
 31
0.0
 73
     3
  0
LINE
  5
B6
  8
BRACKET
  6
STYLE_11
 62
     7
 10
-501.55000000000013
 20
46.986704162284688
 30
0.0
 11
-501.55000000000013
 21
53.982991200000022
 31
0.0
  0
LINE
  5
B7
  8
BRACKET
  6
STYLE_11
 62
     7
 10
-519.05000000000007
 20
46.986704162284688
 30
0.0
 11
-519.05000000000007
 21
53.982991200000022
 31
0.0
  0
ARC
  5
B8
  8
BRACKET
  6
STYLE_11
 62
     7
 10
-510.30000000000013
 20
122.73299120000109
 30
0.0
 40
76.250000000000838
 50
245.50762136313239
 51
294.49237863686687
  0
LINE
  5
B9
  8
BRACKET
  6
STYLE_11
 62
     7
 10
-500.55000000000013
 20
32.982991199999553
 30
0.0
 11
-500.55000000000013
 21
41.982991200000242
 31
0.0
  0
LINE
  5
BA
  8
BRACKET
  6
STYLE_11
 62
     7
 10
-499.80000000000013
 20
44.482991200000022
 30
0.0
 11
-499.80000000000013
 21
47.209402169816713
 31
0.0
  0
LINE
  5
BB
  8
BRACKET
  6
STYLE_11
 62
     7
 10
-500.80000000000013
 20
41.982991200000242
 30
0.0
 11
-500.80000000000013
 21
44.482991200000022
 31
0.0
  0
LINE
  5
BC
  8
BRACKET
  6
STYLE_11
 62
     7
 10
-505.42500000000013
 20
32.982991200000242
 30
0.0
 11
-505.42500000000013
 21
41.982991200000242
 31
0.0
  0
LINE
  5
BD
  8
BRACKET
  6
STYLE_11
 62
     7
 10
-515.17500000000007
 20
32.982991200000242
 30
0.0
 11
-515.17500000000007
 21
41.982991200000242
 31
0.0
  0
LINE
  5
BE
  8
BRACKET
  6
STYLE_11
 62
     7
 10
-519.80000000000018
 20
41.982991200000242
 30
0.0
 11
-519.80000000000018
 21
44.482991200000022
 31
0.0
  0
LINE
  5
BF
  8
BRACKET
  6
STYLE_11
 62
     7
 10
-520.05000000000007
 20
32.982991200000242
 30
0.0
 11
-520.05000000000007
 21
41.982991200000242
 31
0.0
  0
LINE
  5
C0
  8
BRACKET
  6
STYLE_11
 62
     7
 10
-520.80000000000007
 20
47.209402169816713
 30
0.0
 11
-520.80000000000007
 21
44.482991200000022
 31
0.0
  0
LINE
  5
C1
  8
BRACKET
  6
STYLE_11
 62
     7
 10
-520.05000000000007
 20
41.982991200000242
 30
0.0
 11
-500.55000000000013
 21
41.982991200000242
 31
0.0
  0
LINE
  5
C2
  8
BRACKET
  6
STYLE_11
 62
     7
 10
-520.80000000000007
 20
44.482991200000022
 30
0.0
 11
-499.80000000000013
 21
44.482991200000022
 31
0.0
  0
LINE
  5
C3
  8
BRACKET
  6
STYLE_11
 62
     7
 10
-520.05000000000007
 20
32.982991200000242
 30
0.0
 11
-500.55000000000013
 21
32.982991200000242
 31
0.0
  0
LINE
  5
C4
  8
BRACKET
  6
STYLE_11
 62
     7
 10
-475.8423813513636
 20
56.999893767499088
 30
0.0
 11
-475.30000000000013
 21
59.98299119999978
 31
0.0
  0
ARC
  5
C5
  8
BRACKET
  6
STYLE_11
 62
     7
 10
-480.7617309018633
 20
57.894320958499279
 30
0.0
 40
4.999999999999905
 50
294.4923786368646
 51
349.69515353123251
  0
LINE
  5
C6
  8
BRACKET
  6
STYLE_11
 62
     7
 10
-545.30000000000018
 20
59.98299119999978
 30
0.0
 11
-544.75761864863625
 21
56.999893767499543
 31
0.0
  0
ARC
  5
C7
  8
BRACKET
  6
STYLE_11
 62
     7
 10
-539.83826909813695
 20
57.894320958499527
 30
0.0
 40
4.9999999999996723
 50
190.30484646876741
 51
245.5076213631356
  0
LINE
  5
C8
  8
BRACKET
  6
STYLE_11
 62
     7
 10
-519.05000000000007
 20
53.982991200000022
 30
0.0
 11
-501.55000000000013
 21
53.982991200000022
 31
0.0
  0
LINE
  5
C9
  8
BRACKET
  6
STYLE_11
 62
     7
 10
-545.30000000000018
 20
59.98299119999978
 30
0.0
 11
-475.30000000000013
 21
59.98299119999978
 31
0.0
  0
CIRCLE
  5
CA
  8
BRACKET
  6
STYLE_11
 62
     7
 10
-510.30000000000013
 20
-18.16700880000008
 30
0.0
 40
17.25
  0
LINE
  5
CB
  8
BRACKET
  6
STYLE_11
 62
     7
 10
-504.80000000000001
 20
-1.817314613257849
 30
0.0
 11
-504.80000000000001
 21
32.982991200000242
 31
0.0
  0
LINE
  5
CC
  8
BRACKET
  6
STYLE_11
 62
     7
 10
-515.80000000000018
 20
-1.817314613257849
 30
0.0
 11
-515.80000000000018
 21
32.982991200000242
 31
0.0
  0
LINE
  5
CD
  8
BRACKET
  6
STYLE_11
 62
     7
 10
179.48299119999999
 20
-653.90108470037205
 30
0.0
 11
179.48299119999999
 21
-563.90108470037262
 31
0.0
  0
LINE
  5
CE
  8
BRACKET
  6
STYLE_11
 62
     7
 10
171.48299119999999
 20
-619.4010847003716
 30
0.0
 11
171.48299119999999
 21
-653.90108470037205
 31
0.0
  0
LINE
  5
CF
  8
BRACKET
  6
STYLE_11
 62
     7
 10
184.98299119999999
 20
-563.90108470037262
 30
0.0
 11
184.98299119999999
 21
-653.90108470037205
 31
0.0
  0
LINE
  5
D0
  8
BRACKET
  6
STYLE_11
 62
     7
 10
171.48299119999999
 20
-653.90108470037205
 30
0.0
 11
184.98299119999999
 21
-653.90108470037205
 31
0.0
  0
LINE
  5
D1
  8
BRACKET
  6
STYLE_11
 62
     7
 10
123.18268538674241
 20
-614.40108470037228
 30
0.0
 11
157.9829911999995
 21
-614.40108470037228
 31
0.0
  0
LINE
  5
D2
  8
BRACKET
  6
STYLE_11
 62
     7
 10
157.9829911999995
 20
-603.40108470037205
 30
0.0
 11
123.18268538674189
 21
-603.40108470037205
 31
0.0
  0
ARC
  5
D3
  8
BRACKET
  6
STYLE_11
 62
     7
 10
106.8329911999999
 20
-608.90108470037239
 30
0.0
 40
17.250000000000082
 50
18.59282254942735
 51
341.4071774505735
  0
LINE
  5
D4
  8
BRACKET
  6
STYLE_11
 62
     7
 10
123.18268538674189
 20
-603.40108470037205
 30
0.0
 11
123.18268538674241
 21
-614.40108470037228
 31
0.0
  0
LINE
  5
D5
  8
BRACKET
  6
STYLE_11
 62
     7
 10
171.48299119999999
 20
-563.90108470037262
 30
0.0
 11
184.98299119999999
 21
-563.90108470037262
 31
0.0
  0
LINE
  5
D6
  8
BRACKET
  6
STYLE_11
 62
     7
 10
166.9829911999995
 20
-599.40108470037239
 30
0.0
 11
169.4829911999995
 21
-599.40108470037239
 31
0.0
  0
LINE
  5
D7
  8
BRACKET
  6
STYLE_11
 62
     7
 10
166.9829911999995
 20
-613.90108470037217
 30
0.0
 11
169.4829911999995
 21
-613.90108470037217
 31
0.0
  0
LINE
  5
D8
  8
BRACKET
  6
STYLE_11
 62
     7
 10
166.9829911999995
 20
-618.40108470037205
 30
0.0
 11
169.48299119999999
 21
-618.40108470037205
 31
0.0
  0
LINE
  5
D9
  8
BRACKET
  6
STYLE_11
 62
     7
 10
157.9829911999995
 20
-608.90108470037239
 30
0.0
 11
166.9829911999995
 21
-608.90108470037239
 31
0.0
  0
LINE
  5
DA
  8
BRACKET
  6
STYLE_11
 62
     7
 10
157.9829911999995
 20
-600.45733701347399
 30
0.0
 11
166.9829911999995
 21
-600.45733701347399
 31
0.0
  0
LINE
  5
DB
  8
BRACKET
  6
STYLE_11
 62
     7
 10
157.9829911999995
 20
-617.34483238727034
 30
0.0
 11
166.9829911999995
 21
-617.34483238727034
 31
0.0
  0
LINE
  5
DC
  8
BRACKET
  6
STYLE_11
 62
     7
 10
157.9829911999995
 20
-600.45733701347399
 30
0.0
 11
157.9829911999995
 21
-617.34483238727034
 31
0.0
  0
LINE
  5
DD
  8
BRACKET
  6
STYLE_11
 62
     7
 10
166.9829911999995
 20
-599.40108470037239
 30
0.0
 11
166.9829911999995
 21
-618.40108470037205
 31
0.0
  0
LINE
  5
DE
  8
BRACKET
  6
STYLE_11
 62
     7
 10
171.48299119999999
 20
-563.90108470037262
 30
0.0
 11
171.48299119999999
 21
-598.40108470037205
 31
0.0
  0
LINE
  5
DF
  8
BRACKET
  6
STYLE_11
 62
     7
 10
171.61586549282811
 20
-599.90108470037251
 30
0.0
 11
179.48299119999999
 21
-599.90108470037251
 31
0.0
  0
LINE
  5
E0
  8
BRACKET
  6
STYLE_11
 62
     7
 10
171.61586549282811
 20
-617.90108470037217
 30
0.0
 11
179.48299119999999
 21
-617.90108470037217
 31
0.0
  0
LINE
  5
E1
  8
BRACKET
  6
STYLE_11
 62
     7
 10
171.48299119999999
 20
-598.40108470037205
 30
0.0
 11
169.4829911999995
 21
-598.40108470037205
 31
0.0
  0
LINE
  5
E2
  8
BRACKET
  6
STYLE_11
 62
     7
 10
169.48299119999999
 20
-619.4010847003716
 30
0.0
 11
171.48299119999999
 21
-619.4010847003716
 31
0.0
  0
LINE
  5
E3
  8
BRACKET
  6
STYLE_11
 62
     7
 10
169.4829911999995
 20
-598.40108470037228
 30
0.0
 11
169.4829911999995
 21
-619.4010847003716
 31
0.0
  0
ARC
  5
E4
  8
BRACKET
  6
STYLE_11
 62
     7
 10
61.482991199978621
 20
-608.90108470037285
 30
0.0
 40
110.5000000000212
 50
354.54737801218869
 51
5.4526219878118241
  0
LINE
  5
E5
  8
BRACKET
  6
STYLE_12
 62
     7
 10
-510.30000000000013
 20
-18.16700880000008
 30
0.0
 11
-406.53273589550997
 21
-275.00000000000028
 31
0.0
  0
LINE
  5
E6
  8
BRACKET
  6
STYLE_12
 62
     7
 10
-614.06726410449028
 20
-275.00000000000028
 30
0.0
 11
-510.30000000000013
 21
-18.16700880000008
 31
0.0
  0
LINE
  5
E7
  8
BRACKET
  6
STYLE_12
 62
     7
 10
-510.30000000000013
 20
-275.00000000000028
 30
0.0
 11
-510.30000000000013
 21
59.98299119999978
 31
0.0
  0
LINE
  5
E8
  8
BRACKET
  6
STYLE_12
 62
     7
 10
-149.9999999999998
 20
-694.83620144960958
 30
0.0
 11
106.8329911999999
 21
-608.90108470037239
 31
0.0
  0
LINE
  5
E9
  8
BRACKET
  6
STYLE_12
 62
     7
 10
-149.9999999999998
 20
-522.9659679511351
 30
0.0
 11
106.8329911999999
 21
-608.90108470037239
 31
0.0
  0
LINE
  5
EA
  8
BRACKET
  6
STYLE_12
 62
     7
 10
-150.00000000000031
 20
-608.90108470037239
 30
0.0
 11
179.48299119999999
 21
-608.90108470037239
 31
0.0
  0
LINE
  5
EB
  8
PATTERN_FILL
  6
CONTINUOUS
 62
     7
 10
479.84530166345593
 20
533.40125326438351
 30
0.0
 11
483.26474673561569
 21
536.82069833654339
 31
0.0
  0
LINE
  5
EC
  8
PATTERN_FILL
  6
CONTINUOUS
 62
     7
 10
480.21967983583841
 20
532.36141787439294
 30
0.0
 11
484.30458212560609
 21
536.44632016416085
 31
0.0
  0
LINE
  5
ED
  8
PATTERN_FILL
  6
CONTINUOUS
 62
     7
 10
480.63389339821151
 20
531.36141787439306
 30
0.0
 11
485.30458212560609
 21
536.03210660178763
 31
0.0
  0
LINE
  5
EE
  8
PATTERN_FILL
  6
CONTINUOUS
 62
     7
 10
481.33274999999981
 20
530.6460609138079
 30
0.0
 11
486.01993908619102
 21
535.33324999999945
 31
0.0
  0
LINE
  5
EF
  8
PATTERN_FILL
  6
CONTINUOUS
 62
     7
 10
482.33274999999981
 20
530.23184735143514
 30
0.0
 11
486.43415264856401
 21
534.33324999999934
 31
0.0
  0
LINE
  5
F0
  8
PATTERN_FILL
  6
CONTINUOUS
 62
     7
 10
483.33274999999998
 20
529.81763378906203
 30
0.0
 11
486.84836621093712
 21
533.33324999999911
 31
0.0
  0
LINE
  5
F1
  8
PATTERN_FILL
  6
CONTINUOUS
 62
     7
 10
485.7469635623732
 20
530.81763378906203
 30
0.0
 11
485.848366210937
 21
530.91903643762589
 31
0.0
  0
LINE
  5
F2
  8
PATTERN_FILL
  6
CONTINUOUS
 62
     7
 10
499.01663898458401
 20
330.22519637487972
 30
0.0
 11
496.89121123263232
 21
332.35007278471039
 31
0.0
  0
LINE
  5
F3
  8
PATTERN_FILL
  6
CONTINUOUS
 62
     7
 10
500.5924717691384
 20
330.06380251463912
 30
0.0
 11
496.72913398847192
 21
333.92613813428449
 31
0.0
  0
LINE
  5
F4
  8
PATTERN_FILL
  6
CONTINUOUS
 62
     7
 10
501.59252551150797
 20
330.47803833783053
 30
0.0
 11
497.14332529938821
 21
334.92608441451603
 31
0.0
  0
LINE
  5
F5
  8
PATTERN_FILL
  6
CONTINUOUS
 62
     7
 10
502.52972651124372
 20
330.95511059947222
 30
0.0
 11
497.61983499992567
 21
335.86372847069708
 31
0.0
  0
LINE
  5
F6
  8
PATTERN_FILL
  6
CONTINUOUS
 62
     7
 10
502.94391782216002
 20
331.9550568797037
 30
0.0
 11
498.61988874229507
 21
336.27796429388849
 31
0.0
  0
LINE
  5
F7
  8
PATTERN_FILL
  6
CONTINUOUS
 62
     7
 10
503.35810913307643
 20
332.9550031599349
 30
0.0
 11
499.61994248466482
 21
336.69220011708001
 31
0.0
  0
LINE
  5
F8
  8
PATTERN_FILL
  6
CONTINUOUS
 62
     7
 10
502.89395288215411
 20
334.83306915610058
 30
0.0
 11
501.49807602211678
 21
336.22858392163357
 31
0.0
  0
LINE
  5
F9
  8
SPEC
  6
CONTINUOUS
 62
     7
 10
-725.0
 20
1371.786335
 30
0.0
 11
750.0
 21
1371.786335
 31
0.0
  0
LINE
  5
FA
  8
SPEC
  6
CONTINUOUS
 62
     7
 10
-725.0
 20
1334.286335
 30
0.0
 11
750.0
 21
1334.286335
 31
0.0
  0
LINE
  5
FB
  8
SPEC
  6
CONTINUOUS
 62
     7
 10
-725.0
 20
1259.286335
 30
0.0
 11
750.0
 21
1259.286335
 31
0.0
  0
LINE
  5
FC
  8
SPEC
  6
CONTINUOUS
 62
     7
 10
-725.0
 20
1296.786335
 30
0.0
 11
750.0
 21
1296.786335
 31
0.0
  0
LINE
  5
FD
  8
SPEC
  6
CONTINUOUS
 62
     7
 10
-725.0
 20
1034.286335
 30
0.0
 11
750.0
 21
1034.286335
 31
0.0
  0
LINE
  5
FE
  8
SPEC
  6
CONTINUOUS
 62
     7
 10
-725.0
 20
996.78633499999955
 30
0.0
 11
750.0
 21
996.78633499999955
 31
0.0
  0
LINE
  5
FF
  8
SPEC
  6
CONTINUOUS
 62
     7
 10
-725.0
 20
846.78633500000001
 30
0.0
 11
750.0
 21
846.78633500000001
 31
0.0
  0
LINE
  5
100
  8
SPEC
  6
CONTINUOUS
 62
     7
 10
-725.0
 20
734.28633500000001
 30
0.0
 11
750.0
 21
734.28633500000001
 31
0.0
  0
LINE
  5
101
  8
SPEC
  6
CONTINUOUS
 62
     7
 10
-725.0
 20
771.78633500000001
 30
0.0
 11
750.0
 21
771.78633500000001
 31
0.0
  0
LINE
  5
102
  8
SPEC
  6
CONTINUOUS
 62
     7
 10
-725.0
 20
809.28633500000001
 30
0.0
 11
750.0
 21
809.28633500000001
 31
0.0
  0
LINE
  5
103
  8
SPEC
  6
CONTINUOUS
 62
     7
 10
-725.0
 20
1371.786335
 30
0.0
 11
-725.0
 21
621.78633500000001
 31
0.0
  0
TEXT
  5
104
  8
SPEC
 62
     7
 10
-712.49999999999989
 20
1385.7190349999989
 30
0.0
 40
24.4326171875
  1
仕様
 41
0.8
 11
-712.49999999999989
 21
1410.1516521874989
 31
0.0
 73
     3
  0
LINE
  5
105
  8
SPEC
  6
CONTINUOUS
 62
     7
 10
-400.0
 20
1371.786335
 30
0.0
 11
-400.0
 21
621.78633499999978
 31
0.0
  0
LINE
  5
106
  8
SPEC
  6
CONTINUOUS
 62
     7
 10
750.0
 20
1371.786335
 30
0.0
 11
750.0
 21
621.78633500000001
 31
0.0
  0
LINE
  5
107
  8
SPEC
  6
CONTINUOUS
 62
     7
 10
-724.99999999999955
 20
1221.786335
 30
0.0
 11
750.0
 21
1221.786335
 31
0.0
  0
LINE
  5
108
  8
SPEC
  6
CONTINUOUS
 62
     7
 10
-725.0
 20
1184.286335
 30
0.0
 11
750.0
 21
1184.286335
 31
0.0
  0
LINE
  5
109
  8
SPEC
  6
CONTINUOUS
 62
     7
 10
-725.0
 20
1109.286335
 30
0.0
 11
750.0
 21
1109.286335
 31
0.0
  0
LINE
  5
10A
  8
SPEC
  6
CONTINUOUS
 62
     7
 10
-725.0
 20
884.28633499999955
 30
0.0
 11
750.0
 21
884.28633499999955
 31
0.0
  0
LINE
  5
10B
  8
SPEC
  6
CONTINUOUS
 62
     7
 10
-725.0
 20
659.28633500000001
 30
0.0
 11
750.0
 21
659.28633500000001
 31
0.0
  0
LINE
  5
10C
  8
SPEC
  6
CONTINUOUS
 62
     7
 10
-725.0
 20
696.78633500000001
 30
0.0
 11
750.0
 21
696.78633500000001
 31
0.0
  0
LINE
  5
10D
  8
SPEC
  6
CONTINUOUS
 62
     7
 10
483.33274999999981
 20
533.33325000000002
 30
0.0
 11
483.33274999999981
 21
400.00025000000051
 31
0.0
  0
TEXT
  5
10E
  8
SPEC
 62
     7
 10
537.63915972222196
 20
512.01798758680604
 30
0.0
 40
13.57367621527778
  1
ハイパス
 41
0.8
 11
537.63915972222196
 21
525.59166380208387
 31
0.0
 73
     3
  0
LINE
  5
10F
  8
SPEC
  6
CONTINUOUS
 62
     7
 10
325.0
 20
500.00000000000011
 30
0.0
 11
325.0
 21
566.66650000000004
 31
0.0
  0
LINE
  5
110
  8
SPEC
  6
CONTINUOUS
 62
     7
 10
524.99999999999977
 20
450.00012500000031
 30
0.0
 11
524.99999999999977
 21
549.99987500000066
 31
0.0
  0
LINE
  5
111
  8
SPEC
  6
CONTINUOUS
 62
     7
 10
462.49949999999961
 20
500.00000000000011
 30
0.0
 11
462.49949999999961
 21
566.66650000000004
 31
0.0
  0
CIRCLE
  5
112
  8
SPEC
  6
CONTINUOUS
 62
     7
 10
800.0
 20
500.0
 30
0.0
 40
49.999875000000422
  0
CIRCLE
  5
113
  8
SPEC
  6
CONTINUOUS
 62
     7
 10
800.0
 20
500.0
 30
0.0
 40
33.333250000000127
  0
CIRCLE
  5
114
  8
SPEC
  6
CONTINUOUS
 62
     7
 10
800.0
 20
500.0
 30
0.0
 40
29.33326000000033
  0
ARC
  5
115
  8
SPEC
  6
CONTINUOUS
 62
     7
 10
800.0
 20
500.0
 30
0.0
 40
83.333124999999967
 50
168.4630409671845
 51
191.53695903281559
  0
LINE
  5
116
  8
SPEC
  6
CONTINUOUS
 62
     7
 10
620.83387499999981
 20
450.00012500000031
 30
0.0
 11
620.83387499999981
 21
549.9998750000002
 31
0.0
  0
ARC
  5
117
  8
SPEC
  6
CONTINUOUS
 62
     7
 10
800.0
 20
500.0
 30
0.0
 40
83.333125000000024
 50
348.46304096718438
 51
11.536959032815391
  0
TEXT
  5
118
  8
SPEC
 62
     7
 10
899.99974999999995
 20
502.12069904488288
 30
0.0
 40
15.499553078412999
  1
Driver
 41
0.8
 11
899.99974999999995
 21
517.62025212329581
 31
0.0
 73
     3
  0
LINE
  5
119
  8
SPEC
  6
STYLE_11
 62
     7
 10
499.9999999999996
 20
333.33375000000052
 30
0.0
 11
620.83387499999981
 21
333.33375000000052
 31
0.0
  0
LINE
  5
11A
  8
SPEC
  6
CONTINUOUS
 62
     7
 10
524.99999999999977
 20
316.66712500000062
 30
0.0
 11
620.83387499999981
 21
316.66712500000062
 31
0.0
  0
TEXT
  5
11B
  8
SPEC
 62
     7
 10
528.8197152777775
 20
352.31786600477432
 30
0.0
 40
13.57367621527778
  1
フィルター
 41
0.8
 11
528.8197152777775
 21
365.89154222005197
 31
0.0
 73
     3
  0
LINE
  5
11C
  8
SPEC
  6
STYLE_11
 62
     7
 10
499.9999999999996
 20
400.00025000000051
 30
0.0
 11
620.83387499999981
 21
400.00025000000051
 31
0.0
  0
LINE
  5
11D
  8
SPEC
  6
CONTINUOUS
 62
     7
 10
524.99999999999977
 20
416.66687500000029
 30
0.0
 11
620.83387499999981
 21
416.66687500000029
 31
0.0
  0
LINE
  5
11E
  8
SPEC
  6
CONTINUOUS
 62
     7
 10
524.99999999999977
 20
450.00012500000031
 30
0.0
 11
620.83387499999981
 21
450.00012500000031
 31
0.0
  0
LINE
  5
11F
  8
SPEC
  6
STYLE_11
 62
     7
 10
499.9999999999996
 20
466.66675000000032
 30
0.0
 11
620.83387499999981
 21
466.66675000000032
 31
0.0
  0
TEXT
  5
120
  8
SPEC
 62
     7
 10
528.8197152777775
 20
485.6508660047748
 30
0.0
 40
13.57367621527778
  1
フィルター
 41
0.8
 11
528.8197152777775
 21
499.22454222005263
 31
0.0
 73
     3
  0
LINE
  5
121
  8
SPEC
  6
CONTINUOUS
 62
     7
 10
325.0
 20
500.00000000000011
 30
0.0
 11
462.49949999999961
 21
500.00000000000011
 31
0.0
  0
LINE
  5
122
  8
SPEC
  6
CONTINUOUS
 62
     7
 10
458.33487499999961
 20
170.83324999999991
 30
0.0
 11
608.3348749999999
 21
170.83324999999991
 31
0.0
  0
TEXT
  5
123
  8
SPEC
 62
     7
 10
537.63915972222196
 20
378.68498758680551
 30
0.0
 40
13.57367621527778
  1
ローパス
 41
0.8
 11
537.63915972222196
 21
392.25866380208322
 31
0.0
 73
     3
  0
LINE
  5
124
  8
SPEC
  6
CONTINUOUS
 62
     7
 10
499.9993749999997
 20
333.33375000000052
 30
0.0
 11
499.9993749999997
 21
466.66675000000032
 31
0.0
  0
LINE
  5
125
  8
SPEC
  6
CONTINUOUS
 62
     7
 10
524.99999999999977
 20
316.66712500000062
 30
0.0
 11
524.99999999999977
 21
416.66687500000029
 31
0.0
  0
CIRCLE
  5
126
  8
SPEC
  6
CONTINUOUS
 62
     7
 10
499.9993749999997
 20
333.3337499999995
 30
0.0
 40
3.515616210937424
  0
LINE
  5
127
  8
SPEC
  6
CONTINUOUS
 62
     7
 10
483.33274999999981
 20
400.00025000000051
 30
0.0
 11
524.99999999999977
 21
400.00025000000051
 31
0.0
  0
LINE
  5
128
  8
SPEC
  6
CONTINUOUS
 62
     7
 10
499.9993749999997
 20
466.66675000000032
 30
0.0
 11
524.99999999999977
 21
466.66675000000032
 31
0.0
  0
TEXT
  5
129
  8
SPEC
 62
     7
 10
489.95449385880408
 20
185.630734375
 30
0.0
 40
23.972702026367191
  1
接続図
 41
0.8
 11
489.95449385880408
 21
209.60343640136719
 31
0.0
 73
     3
  0
LINE
  5
12A
  8
SPEC
  6
CONTINUOUS
 62
     7
 10
847.14033422797252
 20
483.33337499999959
 30
0.0
 11
881.64945396862731
 21
483.33337499999959
 31
0.0
  0
ARC
  5
12B
  8
SPEC
  6
CONTINUOUS
 62
     7
 10
870.73010523976802
 20
262.6036447602321
 30
0.0
 40
10.66663999999998
 50
273.13639239527521
 51
356.86360760472121
  0
ARC
  5
12C
  8
SPEC
  6
CONTINUOUS
 62
     7
 10
870.73010523976802
 20
404.0638552397686
 30
0.0
 40
10.666639999999999
 50
3.1363923952777131
 51
86.86360760472229
  0
CIRCLE
  5
12D
  8
SPEC
  6
CONTINUOUS
 62
     7
 10
800.0
 20
333.33375000000052
 30
0.0
 40
77.333140000000185
  0
ARC
  5
12E
  8
SPEC
  6
CONTINUOUS
 62
     7
 10
799.99999999999955
 20
1553.4140331249951
 30
0.0
 40
1303.4134081249949
 50
266.86360760472212
 51
273.13639239527782
  0
LINE
  5
12F
  8
SPEC
  6
CONTINUOUS
 62
     7
 10
845.11833355699309
 20
311.78558355699369
 30
0.0
 11
856.44511788558384
 21
300.45879922840322
 31
0.0
  0
LINE
  5
130
  8
SPEC
  6
CONTINUOUS
 62
     7
 10
845.11833355699309
 20
354.88191644300719
 30
0.0
 11
856.44511788558236
 21
366.20870077159651
 31
0.0
  0
ARC
  5
131
  8
SPEC
  6
CONTINUOUS
 62
     7
 10
799.99999999999955
 20
-886.74653312499424
 30
0.0
 40
1303.4134081249949
 50
86.863607604722105
 51
93.136392395277795
  0
TEXT
  5
132
  8
SPEC
 62
     7
 10
823.33327500000019
 20
190.37750322265671
 30
0.0
 40
16.53285661697387
  1
RED
 41
0.8
 11
823.33327500000019
 21
206.91035983963059
 31
0.0
 73
     3
  0
ARC
  5
133
  8
SPEC
  6
CONTINUOUS
 62
     7
 10
2020.080283124995
 20
333.33375000000052
 30
0.0
 40
1303.4134081249949
 50
176.86360760472209
 51
183.1363923952778
  0
ARC
  5
134
  8
SPEC
  6
CONTINUOUS
 62
     7
 10
800.0
 20
333.33375000000052
 30
0.0
 40
68.718255297560034
 50
62.019655054720488
 51
117.9803449452782
  0
LINE
  5
135
  8
SPEC
  6
CONTINUOUS
 62
     7
 10
620.83387499999981
 20
316.66712500000062
 30
0.0
 11
620.83387499999981
 21
416.66687500000029
 31
0.0
  0
CIRCLE
  5
136
  8
SPEC
  6
CONTINUOUS
 62
     7
 10
800.0
 20
333.33375000000052
 30
0.0
 40
49.999874999999982
  0
LINE
  5
137
  8
SPEC
  6
CONTINUOUS
 62
     7
 10
778.45183355699282
 20
378.45208355699361
 30
0.0
 11
767.1250492284006
 21
389.77886788558652
 31
0.0
  0
LINE
  5
138
  8
SPEC
  6
CONTINUOUS
 62
     7
 10
821.54816644300661
 20
378.45208355699361
 30
0.0
 11
832.87495077160236
 21
389.77886788558948
 31
0.0
  0
ARC
  5
139
  8
SPEC
  6
CONTINUOUS
 62
     7
 10
729.26989476023164
 20
262.6036447602321
 30
0.0
 40
10.66663999999999
 50
183.1363923952764
 51
266.86360760471979
  0
CIRCLE
  5
13A
  8
SPEC
  6
CONTINUOUS
 62
     7
 10
800.0
 20
333.33375000000052
 30
0.0
 40
41.384990297559852
  0
LINE
  5
13B
  8
SPEC
  6
CONTINUOUS
 62
     7
 10
754.88166644300645
 20
354.88191644300719
 30
0.0
 11
743.55488211441832
 21
366.20870077159537
 31
0.0
  0
ARC
  5
13C
  8
SPEC
  6
CONTINUOUS
 62
     7
 10
741.66926874529952
 20
364.3230874024764
 30
0.0
 40
2.6666600000003151
 50
44.99999999999654
 51
152.01965505472029
  0
LINE
  5
13D
  8
SPEC
  6
CONTINUOUS
 62
     7
 10
754.88166644300645
 20
311.78558355699352
 30
0.0
 11
743.5548821144115
 21
300.45879922839771
 31
0.0
  0
ARC
  5
13E
  8
SPEC
  6
CONTINUOUS
 62
     7
 10
741.66926874529236
 20
302.34441259751679
 30
0.0
 40
2.6666600000000158
 50
207.98034494527869
 51
314.99999999999608
  0
LINE
  5
13F
  8
SPEC
  6
CONTINUOUS
 62
     7
 10
778.45183355699282
 20
288.2154164430072
 30
0.0
 11
767.12504922840378
 21
276.88863211441799
 31
0.0
  0
ARC
  5
140
  8
SPEC
  6
CONTINUOUS
 62
     7
 10
769.0106625975227
 20
275.00301874529902
 30
0.0
 40
2.6666600000003151
 50
135.0000000000035
 51
242.01965505472481
  0
LINE
  5
141
  8
SPEC
  6
CONTINUOUS
 62
     7
 10
821.54816644300661
 20
288.2154164430076
 30
0.0
 11
832.87495077159952
 21
276.88863211441458
 31
0.0
  0
ARC
  5
142
  8
SPEC
  6
CONTINUOUS
 62
     7
 10
830.98933740248037
 20
275.00301874529578
 30
0.0
 40
2.6666600000001242
 50
297.98034494528292
 51
44.999999999996149
  0
ARC
  5
143
  8
SPEC
  6
CONTINUOUS
 62
     7
 10
800.0
 20
333.33375000000052
 30
0.0
 40
68.718255297559935
 50
152.01965505472339
 51
207.9803449452794
  0
ARC
  5
144
  8
SPEC
  6
CONTINUOUS
 62
     7
 10
800.0
 20
333.33375000000052
 30
0.0
 40
68.718255297559935
 50
242.0196550547231
 51
297.9803449452782
  0
LINE
  5
145
  8
SPEC
  6
CONTINUOUS
 62
     7
 10
790.00002499999982
 20
280.0005500000002
 30
0.0
 11
790.00002499999982
 21
284.34407761882409
 31
0.0
  0
LINE
  5
146
  8
SPEC
  6
CONTINUOUS
 62
     7
 10
780.0000500000001
 20
280.0005500000006
 30
0.0
 11
780.0000500000001
 21
287.50810761483473
 31
0.0
  0
LINE
  5
147
  8
SPEC
  6
CONTINUOUS
 62
     7
 10
819.99994999999944
 20
280.00055000000037
 30
0.0
 11
809.99997499999961
 21
280.0005500000002
 31
0.0
  0
LINE
  5
148
  8
SPEC
  6
CONTINUOUS
 62
     7
 10
809.99997499999961
 20
280.0005500000002
 30
0.0
 11
809.99997499999961
 21
284.34407761882409
 31
0.0
  0
LINE
  5
149
  8
SPEC
  6
CONTINUOUS
 62
     7
 10
819.99994999999944
 20
280.0005500000006
 30
0.0
 11
819.99994999999944
 21
287.50810761483473
 31
0.0
  0
LINE
  5
14A
  8
SPEC
  6
CONTINUOUS
 62
     7
 10
780.0000500000001
 20
280.00055000000037
 30
0.0
 11
790.00002499999982
 21
280.0005500000002
 31
0.0
  0
TEXT
  5
14B
  8
SPEC
 62
     7
 10
778.82839028007083
 20
298.4536288671876
 30
0.0
 40
19.839427940368651
  1
-
 41
0.8
 11
778.82839028007083
 21
318.2930568075563
 31
0.0
 73
     3
  0
TEXT
  5
14C
  8
SPEC
 62
     7
 10
808.82831528007046
 20
298.4536288671876
 30
0.0
 40
19.839427940368651
  1
+
 41
0.8
 11
808.82831528007046
 21
318.2930568075563
 31
0.0
 73
     3
  0
LINE
  5
14D
  8
SPEC
  6
CONTINUOUS
 62
     7
 10
785.00003749999985
 20
200.00075000000061
 30
0.0
 11
785.00003749999985
 21
280.0005500000002
 31
0.0
  0
TEXT
  5
14E
  8
SPEC
 62
     7
 10
741.29218266434191
 20
207.04500322265679
 30
0.0
 40
16.53285661697387
  1
BLK
 41
0.8
 11
741.29218266434191
 21
223.57785983963061
 31
0.0
 73
     3
  0
ARC
  5
14F
  8
SPEC
  6
CONTINUOUS
 62
     7
 10
769.01066259751951
 20
391.66448125470561
 30
0.0
 40
2.6666599999999101
 50
117.9803449452743
 51
225.0000000000048
  0
ARC
  5
150
  8
SPEC
  6
CONTINUOUS
 62
     7
 10
830.98933740248344
 20
391.66448125470862
 30
0.0
 40
2.6666600000003151
 50
315.00000000000352
 51
62.01965505471658
  0
LINE
  5
151
  8
SPEC
  6
CONTINUOUS
 62
     7
 10
700.0014999999994
 20
200.00075000000041
 30
0.0
 11
700.0014999999994
 21
333.33375000000052
 31
0.0
  0
LINE
  5
152
  8
SPEC
  6
CONTINUOUS
 62
     7
 10
700.0014999999994
 20
200.00075000000061
 30
0.0
 11
785.00003749999985
 21
200.00075000000061
 31
0.0
  0
TEXT
  5
153
  8
SPEC
 62
     7
 10
625.00049999999908
 20
340.37800322265639
 30
0.0
 40
16.53285661697387
  1
L.F.-
 41
0.8
 11
625.00049999999908
 21
356.91085983963029
 31
0.0
 73
     3
  0
LINE
  5
154
  8
SPEC
  6
CONTINUOUS
 62
     7
 10
620.83387499999981
 20
333.33375000000052
 30
0.0
 11
700.00149999999894
 21
333.33375000000001
 31
0.0
  0
ARC
  5
155
  8
SPEC
  6
CONTINUOUS
 62
     7
 10
729.26989476023164
 20
404.0638552397686
 30
0.0
 40
10.666639999999999
 50
93.136392395277724
 51
176.8636076047211
  0
TEXT
  5
156
  8
SPEC
 62
     7
 10
625.00049999999908
 20
407.0445032226566
 30
0.0
 40
16.53285661697387
  1
L.F.+
 41
0.8
 11
625.00049999999908
 21
423.5773598396305
 31
0.0
 73
     3
  0
LINE
  5
157
  8
SPEC
  6
CONTINUOUS
 62
     7
 10
620.83387499999981
 20
400.00025000000051
 30
0.0
 11
683.33487499999967
 21
400.00025000000022
 31
0.0
  0
LINE
  5
158
  8
SPEC
  6
CONTINUOUS
 62
     7
 10
718.35054603137257
 20
483.33337499999959
 30
0.0
 11
752.85966577202669
 21
483.33337499999959
 31
0.0
  0
CIRCLE
  5
159
  8
SPEC
  6
CONTINUOUS
 62
     7
 10
725.0001874999997
 20
500.0
 30
0.0
 40
2.6666599999998639
  0
LINE
  5
15A
  8
SPEC
  6
CONTINUOUS
 62
     7
 10
790.00002500000028
 20
462.66676000000012
 30
0.0
 11
809.99997499999961
 21
462.66676000000012
 31
0.0
  0
LINE
  5
15B
  8
SPEC
  6
CONTINUOUS
 62
     7
 10
790.00002500000028
 20
468.20210611436852
 30
0.0
 11
790.00002500000028
 21
462.66676000000012
 31
0.0
  0
LINE
  5
15C
  8
SPEC
  6
CONTINUOUS
 62
     7
 10
809.99997499999961
 20
468.20210611436852
 30
0.0
 11
809.99997499999961
 21
462.66676000000012
 31
0.0
  0
TEXT
  5
15D
  8
SPEC
 62
     7
 10
625.00049999999965
 20
473.71100322265642
 30
0.0
 40
16.53285661697387
  1
H.F.-
 41
0.8
 11
625.00049999999965
 21
490.2438598396302
 31
0.0
 73
     3
  0
LINE
  5
15E
  8
SPEC
  6
CONTINUOUS
 62
     7
 10
620.83387499999981
 20
466.66675000000032
 30
0.0
 11
800.0
 21
466.66674999999969
 31
0.0
  0
TEXT
  5
15F
  8
SPEC
 62
     7
 10
691.66700000000014
 20
440.37775322265583
 30
0.0
 40
16.53285661697387
  1
BLK
 41
0.8
 11
691.66700000000014
 21
456.91060983962961
 31
0.0
 73
     3
  0
TEXT
  5
160
  8
SPEC
 62
     7
 10
747.91681250000045
 20
440.11994136718698
 30
0.0
 40
19.839427940368651
  1
-
 41
0.8
 11
747.91681250000045
 21
459.95936930755562
 31
0.0
 73
     3
  0
LINE
  5
161
  8
SPEC
  6
CONTINUOUS
 62
     7
 10
683.33487499999967
 20
183.33325000000011
 30
0.0
 11
814.99996250000038
 21
183.33325000000011
 31
0.0
  0
LINE
  5
162
  8
SPEC
  6
CONTINUOUS
 62
     7
 10
683.3348749999991
 20
183.33325000000039
 30
0.0
 11
683.33487499999967
 21
400.00025000000022
 31
0.0
  0
LINE
  5
163
  8
SPEC
  6
CONTINUOUS
 62
     7
 10
814.99996249999879
 20
183.33325000000011
 30
0.0
 11
814.9999624999997
 21
280.0005500000002
 31
0.0
  0
ARC
  5
164
  8
SPEC
  6
CONTINUOUS
 62
     7
 10
858.33073125470241
 20
302.34441259752202
 30
0.0
 40
2.6666599999999931
 50
225.0000000000035
 51
332.01965505472128
  0
ARC
  5
165
  8
SPEC
  6
CONTINUOUS
 62
     7
 10
858.33073125470105
 20
364.3230874024776
 30
0.0
 40
2.6666599999999101
 50
27.98034494527435
 51
134.99999999999531
  0
ARC
  5
166
  8
SPEC
  6
CONTINUOUS
 62
     7
 10
800.0
 20
333.33375000000052
 30
0.0
 40
68.718255297559963
 50
332.01965505472248
 51
27.98034494527684
  0
CIRCLE
  5
167
  8
SPEC
  6
CONTINUOUS
 62
     7
 10
874.99981250000064
 20
500.0
 30
0.0
 40
2.6666599999998639
  0
ARC
  5
168
  8
SPEC
  6
CONTINUOUS
 62
     7
 10
-420.08028312499482
 20
333.33375000000092
 30
0.0
 40
1303.4134081249949
 50
356.86360760472218
 51
3.1363923952778232
  0
TEXT
  5
169
  8
SPEC
 62
     7
 10
899.99974999999995
 20
368.78769904488308
 30
0.0
 40
15.499553078412999
  1
Driver
 41
0.8
 11
899.99974999999995
 21
384.28725212329601
 31
0.0
 73
     3
  0
TEXT
  5
16A
  8
SPEC
 62
     7
 10
899.99974999999995
 20
348.79188192749069
 30
0.0
 40
15.499553078412999
  1
Low Freq
 41
0.8
 11
899.99974999999995
 21
364.29143500590368
 31
0.0
 73
     3
  0
TEXT
  5
16B
  8
SPEC
 62
     7
 10
899.99974999999995
 20
482.12488192748998
 30
0.0
 40
15.499553078412999
  1
High Freq
 41
0.8
 11
899.99974999999995
 21
497.62443500590302
 31
0.0
 73
     3
  0
TEXT
  5
16C
  8
SPEC
 62
     7
 10
899.99974999999995
 20
462.1290648100981
 30
0.0
 40
15.499553078412999
  1
25mm
 41
0.8
 11
899.99974999999995
 21
477.62861788851109
 31
0.0
 73
     3
  0
TEXT
  5
16D
  8
SPEC
 62
     7
 10
899.99974999999995
 20
328.79606481009881
 30
0.0
 40
15.499553078412999
  1
200mm
 41
0.8
 11
899.99974999999995
 21
344.2956178885118
 31
0.0
 73
     3
  0
LINE
  5
16E
  8
SPEC
  6
STYLE_11
 62
     7
 10
499.9999999999996
 20
533.33325000000059
 30
0.0
 11
620.83387499999981
 21
533.33325000000002
 31
0.0
  0
LINE
  5
16F
  8
SPEC
  6
CONTINUOUS
 62
     7
 10
524.99999999999977
 20
549.99987500000066
 30
0.0
 11
620.83387499999981
 21
549.9998750000002
 31
0.0
  0
LINE
  5
170
  8
SPEC
  6
CONTINUOUS
 62
     7
 10
325.0
 20
566.66650000000004
 30
0.0
 11
462.49949999999961
 21
566.66650000000004
 31
0.0
  0
TEXT
  5
171
  8
SPEC
 62
     7
 10
332.01363888888869
 20
538.47625477430552
 30
0.0
 40
13.57367621527778
  1
ソニックガード
 41
0.8
 11
332.01363888888869
 21
552.04993098958334
 31
0.0
 73
     3
  0
CIRCLE
  5
172
  8
SPEC
  6
CONTINUOUS
 62
     7
 10
483.33274999999981
 20
533.33324999999945
 30
0.0
 40
3.515616210937424
  0
LINE
  5
173
  8
SPEC
  6
CONTINUOUS
 62
     7
 10
462.49950000000013
 20
533.33325000000002
 30
0.0
 11
524.99999999999977
 21
533.33325000000002
 31
0.0
  0
TEXT
  5
174
  8
SPEC
 62
     7
 10
376.11086111111092
 20
515.35131258680508
 30
0.0
 40
13.57367621527778
  1
回路
 41
0.8
 11
376.11086111111092
 21
528.92498880208291
 31
0.0
 73
     3
  0
LINE
  5
175
  8
SPEC
  6
CONTINUOUS
 62
     7
 10
847.1403342279732
 20
516.66662499999984
 30
0.0
 11
881.64945396862731
 21
516.66662499999984
 31
0.0
  0
TEXT
  5
176
  8
SPEC
 62
     7
 10
747.91681250000011
 20
540.1196913671871
 30
0.0
 40
19.839427940368651
  1
+
 41
0.8
 11
747.91681250000011
 21
559.95911930755574
 31
0.0
 73
     3
  0
TEXT
  5
177
  8
SPEC
 62
     7
 10
691.6669999999998
 20
540.37750322265595
 30
0.0
 40
16.53285661697387
  1
BLUE
 41
0.8
 11
691.6669999999998
 21
556.91035983962968
 31
0.0
 73
     3
  0
LINE
  5
178
  8
SPEC
  6
CONTINUOUS
 62
     7
 10
718.35054603137257
 20
516.66662499999984
 30
0.0
 11
752.85966577202669
 21
516.66662499999984
 31
0.0
  0
LINE
  5
179
  8
SPEC
  6
CONTINUOUS
 62
     7
 10
790.00002500000028
 20
537.33323999999971
 30
0.0
 11
809.99997499999961
 21
537.33323999999971
 31
0.0
  0
LINE
  5
17A
  8
SPEC
  6
CONTINUOUS
 62
     7
 10
790.00002500000028
 20
531.7978938856312
 30
0.0
 11
790.00002500000028
 21
537.33323999999971
 31
0.0
  0
LINE
  5
17B
  8
SPEC
  6
CONTINUOUS
 62
     7
 10
809.99997499999961
 20
531.7978938856312
 30
0.0
 11
809.99997499999961
 21
537.33323999999971
 31
0.0
  0
TEXT
  5
17C
  8
SPEC
 62
     7
 10
625.00049999999965
 20
540.3775032226564
 30
0.0
 40
16.53285661697387
  1
H.F.+
 41
0.8
 11
625.00049999999965
 21
556.91035983963025
 31
0.0
 73
     3
  0
LINE
  5
17D
  8
SPEC
  6
CONTINUOUS
 62
     7
 10
620.83387499999981
 20
533.33324999999957
 30
0.0
 11
800.0
 21
533.33325000000002
 31
0.0
  0
TEXT
  5
17E
  8
SPEC
 62
     7
 10
-716.0
 20
1304.6655572222221
 30
0.0
 40
19.003146701388879
  1
周波数レンジ (-10dB)
 41
0.8
 11
-716.0
 21
1323.668703923611
 31
0.0
 73
     3
  0
TEXT
  5
17F
  8
SPEC
 62
     7
 10
-391.0
 20
1304.6655572222221
 30
0.0
 40
19.003146701388879
  1
55Hz～15kHz
 41
0.8
 11
-391.0
 21
1323.668703923611
 31
0.0
 73
     3
  0
TEXT
  5
180
  8
SPEC
 62
     7
 10
-391.0
 20
1047.6655572222221
 30
0.0
 40
19.003146701388879
  1
100V INPUT --- Tap1 : 15W , Tap2 : 30W , Tap3 : 60W , Tap4 is not used
 41
0.8
 11
-391.0
 21
1066.6687039236101
 31
0.0
 73
     3
  0
TEXT
  5
181
  8
SPEC
 62
     7
 10
-391.0
 20
1079.6655572222221
 30
0.0
 40
19.003146701388879
  1
70.7V INPUT --- Tap1 : 7.5W , Tap2 : 15W , Tap3 : 30W , Tap4 : 60W
 41
0.8
 11
-391.0
 21
1098.6687039236101
 31
0.0
 73
     3
  0
TEXT
  5
182
  8
SPEC
 62
     7
 10
-391.0
 20
1154.6655572222221
 30
0.0
 40
19.003146701388879
  1
70.7V INPUT --- Tap1 : 99dB SPL , Tap2 : 102dB SPL , Tap3 : 105dB SPL , Tap4 : 107dB SPL
 41
0.8
 11
-391.0
 21
1173.668703923611
 31
0.0
 73
     3
  0
TEXT
  5
183
  8
SPEC
 62
     7
 10
-391.0
 20
1122.6655572222221
 30
0.0
 40
19.003146701388879
  1
100V INPUT --- Tap1 : 102dB SPL , Tap2 : 105dB SPL , Tap3 : 107dB SPL , Tap4 do not use
 41
0.8
 11
-391.0
 21
1141.668703923611
 31
0.0
 73
     3
  0
TEXT
  5
184
  8
SPEC
 62
     7
 10
-391.0
 20
1342.1655572222221
 30
0.0
 40
19.003146701388879
  1
2Wayスピーカ (High Output Indoor/Outdoor Background/Foreground Speaker)
 41
0.8
 11
-391.0
 21
1361.168703923611
 31
0.0
 73
     3
  0
TEXT
  5
185
  8
SPEC
 62
     7
 10
-716.0
 20
742.16555722222188
 30
0.0
 40
19.003146701388879
  1
可変振り角度（スピーカ）
 41
0.8
 11
-716.0
 21
761.16870392361079
 31
0.0
 73
     3
  0
TEXT
  5
186
  8
SPEC
 62
     7
 10
-716.0
 20
817.16555722222188
 30
0.0
 40
19.003146701388879
  1
メンテナンス
 41
0.8
 11
-716.0
 21
836.16870392361068
 31
0.0
 73
     3
  0
TEXT
  5
187
  8
SPEC
 62
     7
 10
-716.0
 20
629.66555722222188
 30
0.0
 40
19.003146701388879
  1
付属品
 41
0.8
 11
-716.0
 21
648.66870392361079
 31
0.0
 73
     3
  0
TEXT
  5
188
  8
SPEC
 62
     7
 10
-716.0
 20
667.16555722222188
 30
0.0
 40
19.003146701388879
  1
重量
 41
0.8
 11
-716.0
 21
686.16870392361079
 31
0.0
 73
     3
  0
TEXT
  5
189
  8
SPEC
 62
     7
 10
-716.0
 20
704.66555722222188
 30
0.0
 40
19.003146701388879
  1
寸法
 41
0.8
 11
-716.0
 21
723.66870392361079
 31
0.0
 73
     3
  0
TEXT
  5
18A
  8
SPEC
 62
     7
 10
-716.0
 20
779.66555722222188
 30
0.0
 40
19.003146701388879
  1
コネクター
 41
0.8
 11
-716.0
 21
798.66870392361079
 31
0.0
 73
     3
  0
TEXT
  5
18B
  8
SPEC
 62
     7
 10
-716.0
 20
854.66555722222188
 30
0.0
 40
19.003146701388879
  1
極性
 41
0.8
 11
-716.0
 21
873.66870392361068
 31
0.0
 73
     3
  0
TEXT
  5
18C
  8
SPEC
 62
     7
 10
-716.0
 20
1154.6655572222221
 30
0.0
 40
19.003146701388879
  1
音圧レベル (1W/1m)
 41
0.8
 11
-716.0
 21
1173.668703923611
 31
0.0
 73
     3
  0
TEXT
  5
18D
  8
SPEC
 62
     7
 10
-716.0
 20
1192.1655572222221
 30
0.0
 40
19.003146701388879
  1
高域ユニット
 41
0.8
 11
-716.0
 21
1211.1687039236101
 31
0.0
 73
     3
  0
TEXT
  5
18E
  8
SPEC
 62
     7
 10
-716.0
 20
1229.6655572222221
 30
0.0
 40
19.003146701388879
  1
低域ユニット
 41
0.8
 11
-716.0
 21
1248.668703923611
 31
0.0
 73
     3
  0
TEXT
  5
18F
  8
SPEC
 62
     7
 10
-716.0
 20
1267.1655572222221
 30
0.0
 40
19.003146701388879
  1
公称カバレージ
 41
0.8
 11
-716.0
 21
1286.168703923611
 31
0.0
 73
     3
  0
TEXT
  5
190
  8
SPEC
 62
     7
 10
-716.0
 20
1342.1655572222221
 30
0.0
 40
19.003146701388879
  1
形式
 41
0.8
 11
-716.0
 21
1361.168703923611
 31
0.0
 73
     3
  0
TEXT
  5
191
  8
SPEC
 62
     7
 10
-716.0
 20
929.66555722222211
 30
0.0
 40
19.003146701388879
  1
外装色
 41
0.8
 11
-716.0
 21
948.66870392361113
 31
0.0
 73
     3
  0
TEXT
  5
192
  8
SPEC
 62
     7
 10
-716.0
 20
967.16555722222211
 30
0.0
 40
19.003146701388879
  1
耐候性規格
 41
0.8
 11
-716.0
 21
986.16870392361113
 31
0.0
 73
     3
  0
TEXT
  5
193
  8
SPEC
 62
     7
 10
-716.0
 20
1004.665557222222
 30
0.0
 40
19.003146701388879
  1
クロスオーバー
 41
0.8
 11
-716.0
 21
1023.66870392361
 31
0.0
 73
     3
  0
TEXT
  5
194
  8
SPEC
 62
     7
 10
-716.0
 20
1079.6655572222221
 30
0.0
 40
19.003146701388879
  1
入力切替
 41
0.8
 11
-716.0
 21
1098.6687039236101
 31
0.0
 73
     3
  0
TEXT
  5
195
  8
SPEC
 62
     7
 10
-391.0
 20
742.16555722222188
 30
0.0
 40
19.003146701388879
  1
横方向 : 44゜ , 縦方向 : 37゜
 41
0.8
 11
-391.0
 21
761.16870392361079
 31
0.0
 73
     3
  0
TEXT
  5
196
  8
SPEC
 62
     7
 10
-391.0
 20
817.16555722222188
 30
0.0
 40
19.003146701388879
  1
SPユニットは前面側で交換
 41
0.8
 11
-391.0
 21
836.16870392361068
 31
0.0
 73
     3
  0
TEXT
  5
197
  8
SPEC
 62
     7
 10
-391.0
 20
854.66555722222188
 30
0.0
 40
19.003146701388879
  1
正相 (低域) , 正相 (高域)
 41
0.8
 11
-391.0
 21
873.66870392361068
 31
0.0
 73
     3
  0
TEXT
  5
198
  8
SPEC
 62
     7
 10
-391.0
 20
779.66555722222188
 30
0.0
 40
19.003146701388879
  1
プッシュ式ターミナル
 41
0.8
 11
-391.0
 21
798.66870392361079
 31
0.0
 73
     3
  0
TEXT
  5
199
  8
SPEC
 62
     7
 10
-391.0
 20
704.66555722222188
 30
0.0
 40
19.003146701388879
  1
279(W)×382(H)×224(D)mm
 41
0.8
 11
-391.0
 21
723.66870392361079
 31
0.0
 73
     3
  0
TEXT
  5
19A
  8
SPEC
 62
     7
 10
-391.0
 20
667.16555722222188
 30
0.0
 40
19.003146701388879
  1
約6.5kg
 41
0.8
 11
-391.0
 21
686.16870392361079
 31
0.0
 73
     3
  0
TEXT
  5
19B
  8
SPEC
 62
     7
 10
-391.0
 20
967.16555722222211
 30
0.0
 40
19.003146701388879
  1
Mil-Std 810 , IPX4 Per IEC 529 (全天候型)
 41
0.8
 11
-391.0
 21
986.16870392361113
 31
0.0
 73
     3
  0
TEXT
  5
19C
  8
SPEC
 62
     7
 10
-391.0
 20
1229.6655572222221
 30
0.0
 40
19.003146701388879
  1
200mm (口径 : 8インチ)
 41
0.8
 11
-391.0
 21
1248.668703923611
 31
0.0
 73
     3
  0
TEXT
  5
19D
  8
SPEC
 62
     7
 10
-391.0
 20
1192.1655572222221
 30
0.0
 40
19.003146701388879
  1
25mm (ダイアフラム径 : 1インチ)
 41
0.8
 11
-391.0
 21
1211.1687039236101
 31
0.0
 73
     3
  0
TEXT
  5
19E
  8
SPEC
 62
     7
 10
-391.0
 20
929.66555722222211
 30
0.0
 40
19.003146701388879
  1
CONTROL 28T: 黒
 41
0.8
 11
-391.0
 21
948.66870392361113
 31
0.0
 73
     3
  0
TEXT
  5
19F
  8
SPEC
 62
     7
 10
-391.0
 20
1004.665557222222
 30
0.0
 40
19.003146701388879
  1
2.8kHz
 41
0.8
 11
-391.0
 21
1023.66870392361
 31
0.0
 73
     3
  0
TEXT
  5
1A0
  8
SPEC
 62
     7
 10
-391.0
 20
1267.1655572222221
 30
0.0
 40
19.003146701388879
  1
90゜×90゜
 41
0.8
 11
-391.0
 21
1286.168703923611
 31
0.0
 73
     3
  0
LINE
  5
1A1
  8
SPEC
  6
CONTINUOUS
 62
     7
 10
-725.0
 20
959.28633499999955
 30
0.0
 11
750.0
 21
959.28633499999955
 31
0.0
  0
LINE
  5
1A2
  8
SPEC
  6
CONTINUOUS
 62
     7
 10
-725.0
 20
621.78633500000001
 30
0.0
 11
750.0
 21
621.78633500000001
 31
0.0
  0
TEXT
  5
1A3
  8
SPEC
 62
     7
 10
-391.0
 20
897.66555722222199
 30
0.0
 40
19.003146701388879
  1
CONTROL 28T-WH: 白
 41
0.8
 11
-391.0
 21
916.66870392361102
 31
0.0
 73
     3
  0
TEXT
  5
1A4
  8
SPEC
 62
     7
 10
-391.0
 20
629.66555722222188
 30
0.0
 40
19.003146701388879
  1
Invisiball取付金具(壁用 1本:約230g),六角レンチ
 41
0.8
 11
-391.0
 21
648.66870392361079
 31
0.0
 73
     3
  0
LINE
  5
1A5
  8
SPEC
  6
CONTINUOUS
 62
     7
 10
45.571891388307883
 20
483.33325000000048
 30
0.0
 11
175.0000000000004
 21
483.33325000000031
 31
0.0
  0
LINE
  5
1A6
  8
SPEC
  6
CONTINUOUS
 62
     7
 10
45.571891388308337
 20
408.33325000000048
 30
0.0
 11
175.0000000000004
 21
408.33325000000082
 31
0.0
  0
LINE
  5
1A7
  8
SPEC
  6
CONTINUOUS
 62
     7
 10
-75.000035714183483
 20
333.33373214290958
 30
0.0
 11
175.0000000000004
 21
333.33337500000079
 31
0.0
  0
TEXT
  5
1A8
  8
SPEC
 62
     7
 10
68.750000000000895
 20
413.29419072265682
 30
0.0
 40
16.53285661697387
  1
ORANGE
 41
0.8
 11
68.750000000000895
 21
429.82704733963072
 31
0.0
 73
     3
  0
TEXT
  5
1A9
  8
SPEC
 62
     7
 10
68.750000000000895
 20
438.29419072265682
 30
0.0
 40
16.53285661697387
  1
VIOLET
 41
0.8
 11
68.750000000000895
 21
454.82704733963072
 31
0.0
 73
     3
  0
TEXT
  5
1AA
  8
SPEC
 62
     7
 10
68.750000000000895
 20
463.29419072265648
 30
0.0
 40
16.53285661697387
  1
BLUE
 41
0.8
 11
68.750000000000895
 21
479.82704733963038
 31
0.0
 73
     3
  0
TEXT
  5
1AB
  8
SPEC
 62
     7
 10
68.750000000000895
 20
488.29419072265682
 30
0.0
 40
16.53285661697387
  1
WHITE
 41
0.8
 11
68.750000000000895
 21
504.82704733963072
 31
0.0
 73
     3
  0
LINE
  5
1AC
  8
SPEC
  6
CONTINUOUS
 62
     7
 10
60.912291827593442
 20
458.33325000000048
 30
0.0
 11
175.0000000000004
 21
458.33325000000002
 31
0.0
  0
LINE
  5
1AD
  8
SPEC
  6
CONTINUOUS
 62
     7
 10
60.912291827593442
 20
433.33325000000048
 30
0.0
 11
175.0000000000004
 21
433.33325000000082
 31
0.0
  0
TEXT
  5
1AE
  8
SPEC
 62
     7
 10
-51.952963867186597
 20
517.2656443359374
 30
0.0
 40
16.53285661697387
  1
切替スイッチ
 41
0.8
 11
-51.952963867186597
 21
533.79850095291135
 31
0.0
 73
     3
  0
CIRCLE
  5
1AF
  8
SPEC
  6
CONTINUOUS
 62
     7
 10
12.50000000000089
 20
445.83325000000031
 30
0.0
 40
49.999999999999559
  0
LINE
  5
1B0
  8
SPEC
  6
CONTINUOUS
 62
     7
 10
-93.749999999999545
 20
455.20825000000082
 30
0.0
 11
-74.999999999999559
 21
445.83325000000048
 31
0.0
  0
LINE
  5
1B1
  8
SPEC
  6
CONTINUOUS
 62
     7
 10
-124.99987499999899
 20
437.49993750000061
 30
0.0
 11
-124.99987499999899
 21
454.16656250000091
 31
0.0
  0
LINE
  5
1B2
  8
SPEC
  6
CONTINUOUS
 62
     7
 10
-133.33318749999941
 20
445.83325000000048
 30
0.0
 11
-116.6665624999991
 21
445.83325000000048
 31
0.0
  0
LINE
  5
1B3
  8
SPEC
  6
CONTINUOUS
 62
     7
 10
-93.749999999999545
 20
342.70875000000211
 30
0.0
 11
-74.999999999999559
 21
333.33375000000183
 31
0.0
  0
LINE
  5
1B4
  8
SPEC
  6
CONTINUOUS
 62
     7
 10
-93.749999999999545
 20
323.95875000000183
 30
0.0
 11
-74.999999999999559
 21
333.33375000000183
 31
0.0
  0
LINE
  5
1B5
  8
SPEC
  6
CONTINUOUS
 62
     7
 10
-133.33318749999941
 20
333.33375000000183
 30
0.0
 11
-116.6665624999991
 21
333.33375000000183
 31
0.0
  0
TEXT
  5
1B6
  8
SPEC
 62
     7
 10
-108.3332499999988
 20
381.78662886718803
 30
0.0
 40
19.839427940368651
  1
INPUT
 41
0.8
 11
-108.3332499999988
 21
401.62605680755661
 31
0.0
 73
     3
  0
LINE
  5
1B7
  8
SPEC
  6
CONTINUOUS
 62
     7
 10
-93.749999999999545
 20
436.45825000000048
 30
0.0
 11
-74.999999999999559
 21
445.83325000000048
 31
0.0
  0
LINE
  5
1B8
  8
SPEC
  6
CONTINUOUS
 62
     7
 10
-74.999999999999091
 20
445.83325000000031
 30
0.0
 11
-37.499999999999112
 21
445.83325000000031
 31
0.0
  0
LINE
  5
1B9
  8
SPEC
  6
CONTINUOUS
 62
     7
 10
249.99999999999909
 20
570.83325000000025
 30
0.0
 11
249.99999999999909
 21
320.83325000000042
 31
0.0
  0
LINE
  5
1BA
  8
SPEC
  6
CONTINUOUS
 62
     7
 10
175.0
 20
570.83325000000025
 30
0.0
 11
175.0
 21
320.83325000000042
 31
0.0
  0
LINE
  5
1BB
  8
SPEC
  6
CONTINUOUS
 62
     7
 10
249.99999999999909
 20
333.33325000000042
 30
0.0
 11
524.99999999999977
 21
333.33325000000042
 31
0.0
  0
TEXT
  5
1BC
  8
SPEC
 62
     7
 10
256.25
 20
338.29419072265682
 30
0.0
 40
16.53285661697387
  1
1 GRN
 41
0.8
 11
256.25
 21
354.82704733963072
 31
0.0
 73
     3
  0
TEXT
  5
1BD
  8
SPEC
 62
     7
 10
181.25000000000091
 20
425.79419072265699
 30
0.0
 40
16.53285661697387
  1
5
 41
0.8
 11
181.25000000000091
 21
442.32704733963089
 31
0.0
 73
     3
  0
TEXT
  5
1BE
  8
SPEC
 62
     7
 10
181.25000000000091
 20
350.79419072265642
 30
0.0
 40
16.53285661697387
  1
Used
 41
0.8
 11
181.25000000000091
 21
367.32704733963033
 31
0.0
 73
     3
  0
TEXT
  5
1BF
  8
SPEC
 62
     7
 10
181.25000000000091
 20
375.79419072265642
 30
0.0
 40
16.53285661697387
  1
Not
 41
0.8
 11
181.25000000000091
 21
392.32704733963033
 31
0.0
 73
     3
  0
TEXT
  5
1C0
  8
SPEC
 62
     7
 10
181.25000000000091
 20
400.79419072265648
 30
0.0
 40
16.53285661697387
  1
6
 41
0.8
 11
181.25000000000091
 21
417.32704733963038
 31
0.0
 73
     3
  0
TEXT
  5
1C1
  8
SPEC
 62
     7
 10
181.25000000000091
 20
450.79419072265631
 30
0.0
 40
16.53285661697387
  1
4
 41
0.8
 11
181.25000000000091
 21
467.32704733963033
 31
0.0
 73
     3
  0
TEXT
  5
1C2
  8
SPEC
 62
     7
 10
181.25000000000091
 20
475.79419072265648
 30
0.0
 40
16.53285661697387
  1
3
 41
0.8
 11
181.25000000000091
 21
492.32704733963038
 31
0.0
 73
     3
  0
LINE
  5
1C3
  8
SPEC
  6
CONTINUOUS
 62
     7
 10
175.0
 20
320.83325000000042
 30
0.0
 11
249.99999999999909
 21
320.83325000000042
 31
0.0
  0
LINE
  5
1C4
  8
SPEC
  6
CONTINUOUS
 62
     7
 10
250.0
 20
533.33325000000025
 30
0.0
 11
325.0
 21
533.33325000000002
 31
0.0
  0
TEXT
  5
1C5
  8
SPEC
 62
     7
 10
256.25
 20
538.29419072265671
 30
0.0
 40
16.53285661697387
  1
2 YEL
 41
0.8
 11
256.25
 21
554.82704733963055
 31
0.0
 73
     3
  0
TEXT
  5
1C6
  8
SPEC
 62
     7
 10
177.22222222222169
 20
547.85126258680577
 30
0.0
 40
13.57367621527778
  1
トランス
 41
0.8
 11
177.22222222222169
 21
561.4249388020836
 31
0.0
 73
     3
  0
LINE
  5
1C7
  8
SPEC
  6
CONTINUOUS
 62
     7
 10
175.0
 20
570.83325000000025
 30
0.0
 11
249.99999999999909
 21
570.83325000000025
 31
0.0
  0
TEXT
  5
1C8
  8
DIMNSIONS
 62
     7
 10
-100.0
 20
-1005.518765
 30
0.0
 40
24.4326171875
  1
(単位：mm)
 41
0.8
 11
-100.0
 21
-981.08614781250003
 31
0.0
 73
     3
  0
TEXT
  5
1C9
  8
DIMNSIONS
 62
     7
 10
-662.5
 20
-376.611328125
 30
0.0
 40
20.666122436523441
  1
可変振り角度（スピーカ）横方向
 41
0.8
 11
-662.5
 21
-355.94520568847662
 31
0.0
 73
     3
  0
TEXT
  5
1CA
  8
DIMNSIONS
 62
     7
 10
-350.0
 20
-786.5234375
 30
0.0
 40
20.666122436523441
  1
（スピーカ）縦方向
 41
0.8
 11
-350.0
 21
-765.85731506347645
 31
0.0
 73
     3
  0
TEXT
  5
1CB
  8
DIMNSIONS
 62
     7
 10
-350.0
 20
-748.095703125
 30
0.0
 40
20.666122436523441
  1
可変振り角度
 41
0.8
 11
-350.0
 21
-727.42958068847645
 31
0.0
 73
     3
  0
LINE
  5
1CC
  8
DIMNSIONS
  6
CONTINUOUS
 62
     7
 10
-565.30000000000018
 20
59.98299119999978
 30
0.0
 11
-720.0
 21
59.98299119999978
 31
0.0
  0
LINE
  5
1CD
  8
DIMNSIONS
  6
CONTINUOUS
 62
     7
 10
-586.20185955205125
 20
-1.0170087999999851
 30
0.0
 11
-720.0
 21
-1.0170087999999851
 31
0.0
  0
LINE
  5
1CE
  8
DIMNSIONS
  6
CONTINUOUS
 62
     7
 10
-700.0
 20
59.98299119999978
 30
0.0
 11
-700.0
 21
-1.0170087999999851
 31
0.0
  0
LINE
  5
1CF
  8
DIMNSIONS
  6
CONTINUOUS
 62
     7
 10
-700.0
 20
59.98299119999978
 30
0.0
 11
-693.2996020484976
 21
34.976765614062288
 31
0.0
  0
LINE
  5
1D0
  8
DIMNSIONS
  6
CONTINUOUS
 62
     7
 10
-700.0
 20
59.98299119999978
 30
0.0
 11
-706.7003979515024
 21
34.976765614062288
 31
0.0
  0
LINE
  5
1D1
  8
DIMNSIONS
  6
CONTINUOUS
 62
     7
 10
-700.0
 20
-1.0170087999999851
 30
0.0
 11
-706.7003979515024
 21
23.989216785937511
 31
0.0
  0
LINE
  5
1D2
  8
DIMNSIONS
  6
CONTINUOUS
 62
     7
 10
-700.0
 20
-1.0170087999999851
 30
0.0
 11
-693.2996020484976
 21
23.989216785937511
 31
0.0
  0
TEXT
  5
1D3
  8
DIMNSIONS
 62
     7
 10
-709.93888888888875
 20
11.84410231111101
 30
0.0
 40
27.147352430555561
  1
61
 50
90.0
 41
0.8
 11
-737.08624131944441
 21
11.84410231111101
 31
0.0
 73
     3
  0
LINE
  5
1D4
  8
DIMNSIONS
  6
CONTINUOUS
 62
     7
 10
-586.20185955205125
 20
-1.0170087999999851
 30
0.0
 11
-720.0
 21
-1.0170087999999851
 31
0.0
  0
LINE
  5
1D5
  8
DIMNSIONS
  6
CONTINUOUS
 62
     7
 10
-530.30000000000007
 20
-225.0
 30
0.0
 11
-720.0
 21
-225.0
 31
0.0
  0
LINE
  5
1D6
  8
DIMNSIONS
  6
CONTINUOUS
 62
     7
 10
-700.0
 20
-1.0170087999999851
 30
0.0
 11
-700.0
 21
-225.0
 31
0.0
  0
LINE
  5
1D7
  8
DIMNSIONS
  6
CONTINUOUS
 62
     7
 10
-700.0
 20
-1.0170087999999851
 30
0.0
 11
-693.2996020484976
 21
-26.023234385937489
 31
0.0
  0
LINE
  5
1D8
  8
DIMNSIONS
  6
CONTINUOUS
 62
     7
 10
-700.0
 20
-1.0170087999999851
 30
0.0
 11
-706.7003979515024
 21
-26.023234385937489
 31
0.0
  0
LINE
  5
1D9
  8
DIMNSIONS
  6
CONTINUOUS
 62
     7
 10
-700.0
 20
-225.0
 30
0.0
 11
-706.7003979515024
 21
-199.9937744140625
 31
0.0
  0
LINE
  5
1DA
  8
DIMNSIONS
  6
CONTINUOUS
 62
     7
 10
-700.0
 20
-225.0
 30
0.0
 11
-693.2996020484976
 21
-199.9937744140625
 31
0.0
  0
TEXT
  5
1DB
  8
DIMNSIONS
 62
     7
 10
-709.93888888888875
 20
-139.46683773333331
 30
0.0
 40
27.147352430555561
  1
224
 50
90.0
 41
0.8
 11
-737.08624131944441
 21
-139.46683773333331
 31
0.0
 73
     3
  0
LINE
  5
1DC
  8
DIMNSIONS
  6
CONTINUOUS
 62
     7
 10
-416.08314044794878
 20
-1.017008799999757
 30
0.0
 11
-350.78271631092417
 21
-1.017008799999757
 31
0.0
  0
ARC
  5
1DD
  8
DIMNSIONS
  6
CONTINUOUS
 62
     7
 10
-441.08500000000009
 20
-1.017008799999757
 30
0.0
 40
70.302283689075907
 50
292.69999999999999
 51
0.0
  0
LINE
  5
1DE
  8
DIMNSIONS
  6
CONTINUOUS
 62
     7
 10
-370.78271631092417
 20
-1.017008799999757
 30
0.0
 11
-364.08231835942178
 21
-26.023234385937251
 31
0.0
  0
LINE
  5
1DF
  8
DIMNSIONS
  6
CONTINUOUS
 62
     7
 10
-370.78271631092417
 20
-1.017008799999757
 30
0.0
 11
-377.48311426242662
 21
-26.023234385937251
 31
0.0
  0
LINE
  5
1E0
  8
DIMNSIONS
  6
CONTINUOUS
 62
     7
 10
-413.95492393518742
 20
-65.873543278930867
 30
0.0
 11
-393.27956855939448
 21
-50.293545498187569
 31
0.0
  0
LINE
  5
1E1
  8
DIMNSIONS
  6
CONTINUOUS
 62
     7
 10
-413.95492393518742
 20
-65.873543278930867
 30
0.0
 11
-388.25954205710792
 21
-62.718547097798421
 31
0.0
  0
TEXT
  5
1E2
  8
DIMNSIONS
 62
     7
 10
-378.30517180808351
 20
-106.3751402029984
 30
0.0
 40
27.147352430555561
  1
67.3°
 50
56.350000000000009
 41
0.8
 11
-400.90365952694032
 21
-91.332298157378716
 31
0.0
 73
     3
  0
LINE
  5
1E3
  8
DIMNSIONS
  6
CONTINUOUS
 62
     7
 10
-399.04060402719188
 20
-293.54367709133589
 30
0.0
 11
-397.08785774407198
 21
-298.37689374474371
 31
0.0
  0
LINE
  5
1E4
  8
DIMNSIONS
  6
CONTINUOUS
 62
     7
 10
-621.55939597280837
 20
-293.54367709133589
 30
0.0
 11
-623.51214225592855
 21
-298.37689374474371
 31
0.0
  0
ARC
  5
1E5
  8
DIMNSIONS
  6
CONTINUOUS
 62
     7
 10
-510.30000000000013
 20
-18.16700880000008
 30
0.0
 40
282.21609615459431
 50
248.0
 51
292.0
  0
LINE
  5
1E6
  8
DIMNSIONS
  6
CONTINUOUS
 62
     7
 10
-404.57998961239008
 20
-279.83321665340799
 30
0.0
 11
-425.25534498818291
 21
-295.4132144341512
 31
0.0
  0
LINE
  5
1E7
  8
DIMNSIONS
  6
CONTINUOUS
 62
     7
 10
-404.57998961239008
 20
-279.83321665340799
 30
0.0
 11
-430.27537149046952
 21
-282.98821283454038
 31
0.0
  0
LINE
  5
1E8
  8
DIMNSIONS
  6
CONTINUOUS
 62
     7
 10
-616.02001038761034
 20
-279.83321665340799
 30
0.0
 11
-590.32462850953107
 21
-282.98821283454038
 31
0.0
  0
LINE
  5
1E9
  8
DIMNSIONS
  6
CONTINUOUS
 62
     7
 10
-616.02001038761034
 20
-279.83321665340799
 30
0.0
 11
-595.34465501181751
 21
-295.4132144341512
 31
0.0
  0
TEXT
  5
1EA
  8
DIMNSIONS
 62
     7
 10
-545.57777777777801
 20
-335.7219938434834
 30
0.0
 40
27.147352430555561
  1
44°
 41
0.8
 11
-545.57777777777801
 21
-308.5746414129278
 31
0.0
 73
     3
  0
TEXT
  5
1EB
  8
DIMNSIONS
 62
     7
 10
-250.0
 20
-186.43000000000001
 30
0.0
 40
24.4326171875
  1
注1) スピーカの角度をつけた時の寸法です。
 41
0.8
 11
-250.0
 21
-161.99738281250001
 31
0.0
 73
     3
  0
LINE
  5
1EC
  8
DIMNSIONS
  6
CONTINUOUS
 62
     7
 10
-650.0
 20
-816.82499999999982
 30
0.0
 11
-650.0
 21
-895.0
 31
0.0
  0
LINE
  5
1ED
  8
DIMNSIONS
  6
CONTINUOUS
 62
     7
 10
-370.59999999999991
 20
-816.81999999999982
 30
0.0
 11
-370.59999999999991
 21
-895.0
 31
0.0
  0
LINE
  5
1EE
  8
DIMNSIONS
  6
CONTINUOUS
 62
     7
 10
-650.0
 20
-875.0
 30
0.0
 11
-370.59999999999991
 21
-875.0
 31
0.0
  0
LINE
  5
1EF
  8
DIMNSIONS
  6
CONTINUOUS
 62
     7
 10
-650.0
 20
-875.0
 30
0.0
 11
-624.99377441406239
 21
-868.2996020484976
 31
0.0
  0
LINE
  5
1F0
  8
DIMNSIONS
  6
CONTINUOUS
 62
     7
 10
-650.0
 20
-875.0
 30
0.0
 11
-624.99377441406239
 21
-881.70039795150228
 31
0.0
  0
LINE
  5
1F1
  8
DIMNSIONS
  6
CONTINUOUS
 62
     7
 10
-370.59999999999991
 20
-875.0
 30
0.0
 11
-395.60622558593741
 21
-881.70039795150228
 31
0.0
  0
LINE
  5
1F2
  8
DIMNSIONS
  6
CONTINUOUS
 62
     7
 10
-370.59999999999991
 20
-875.0
 30
0.0
 11
-395.60622558593741
 21
-868.2996020484976
 31
0.0
  0
TEXT
  5
1F3
  8
DIMNSIONS
 62
     7
 10
-536.75833333333333
 20
-865.06111111111113
 30
0.0
 40
27.147352430555561
  1
279
 41
0.8
 11
-536.75833333333333
 21
-837.91375868055547
 31
0.0
 73
     3
  0
LINE
  5
1F4
  8
DIMNSIONS
  6
CONTINUOUS
 62
     7
 10
-168.96647310412391
 20
-516.61987482303346
 30
0.0
 11
-203.23287626615709
 21
-505.15449670884612
 31
0.0
  0
LINE
  5
1F5
  8
DIMNSIONS
  6
CONTINUOUS
 62
     7
 10
-168.96647310412391
 20
-701.18229457771122
 30
0.0
 11
-203.23287626615709
 21
-712.64767269189838
 31
0.0
  0
ARC
  5
1F6
  8
DIMNSIONS
  6
CONTINUOUS
 62
     7
 10
106.8329911999999
 20
-608.90108470037239
 30
0.0
 40
306.96207224603887
 50
161.5
 51
198.5
  0
LINE
  5
1F7
  8
DIMNSIONS
  6
CONTINUOUS
 62
     7
 10
-184.26640316203321
 20
-706.30157956379674
 30
0.0
 11
-198.36620896680861
 21
-684.58978260843355
 31
0.0
  0
LINE
  5
1F8
  8
DIMNSIONS
  6
CONTINUOUS
 62
     7
 10
-184.26640316203321
 20
-706.30157956379674
 30
0.0
 11
-185.62129469971441
 21
-680.44870893625489
 31
0.0
  0
LINE
  5
1F9
  8
DIMNSIONS
  6
CONTINUOUS
 62
     7
 10
-184.26640316203321
 20
-511.50058983694811
 30
0.0
 11
-185.62129469971441
 21
-537.35346046448979
 31
0.0
  0
LINE
  5
1FA
  8
DIMNSIONS
  6
CONTINUOUS
 62
     7
 10
-184.26640316203321
 20
-511.50058983694811
 30
0.0
 11
-198.3662089668085
 21
-533.21238679231112
 31
0.0
  0
TEXT
  5
1FB
  8
DIMNSIONS
 62
     7
 10
-210.0679699349279
 20
-644.17886247815011
 30
0.0
 40
27.147352430555561
  1
37°
 50
90.0
 41
0.8
 11
-237.2153223654835
 21
-644.17886247815011
 31
0.0
 73
     3
  0
LINE
  5
1FC
  8
DIMNSIONS
  6
CONTINUOUS
 62
     7
 10
-63.469999999999992
 20
-418.45641460000002
 30
0.0
 11
195.08124772527279
 21
-418.45641460000002
 31
0.0
  0
LINE
  5
1FD
  8
DIMNSIONS
  6
CONTINUOUS
 62
     7
 10
141.0040404900042
 20
-438.53238915111422
 30
0.0
 11
194.00226644943481
 21
-443.1691355920679
 31
0.0
  0
ARC
  5
1FE
  8
DIMNSIONS
  6
CONTINUOUS
 62
     7
 10
-88.46527579999929
 20
-418.45641460000002
 30
0.0
 40
263.54652352527199
 50
344.1298521442323
 51
354.99999733656449
  0
LINE
  5
1FF
  8
DIMNSIONS
  6
CONTINUOUS
 62
     7
 10
174.0783725686299
 20
-441.42601981093833
 30
0.0
 11
178.12820270645739
 21
-466.99564097782371
 31
0.0
  0
LINE
  5
200
  8
DIMNSIONS
  6
CONTINUOUS
 62
     7
 10
174.0783725686299
 20
-441.42601981093833
 30
0.0
 11
164.8008177655577
 21
-465.59487637551911
 31
0.0
  0
ARC
  5
201
  8
DIMNSIONS
  6
CONTINUOUS
 62
     7
 10
-88.46527579999929
 20
-418.45641460000002
 30
0.0
 40
263.54652352527199
 50
0.0
 51
12.83474566507277
  0
LINE
  5
202
  8
DIMNSIONS
  6
CONTINUOUS
 62
     7
 10
175.0812477252727
 20
-418.45641460000002
 30
0.0
 11
168.38084977377031
 21
-393.45018901406252
 31
0.0
  0
LINE
  5
203
  8
DIMNSIONS
  6
CONTINUOUS
 62
     7
 10
175.0812477252727
 20
-418.45641460000002
 30
0.0
 11
181.7816456767751
 21
-393.45018901406252
 31
0.0
  0
TEXT
  5
204
  8
DIMNSIONS
 62
     7
 10
125.0
 20
-388.26611555698747
 30
0.0
 40
27.147352430555561
  1
5°
 41
0.8
 11
125.0
 21
-361.11876312643199
 31
0.0
 73
     3
  0
LINE
  5
205
  8
DIMNSIONS
  6
CONTINUOUS
 62
     7
 10
-100.0000000000005
 20
-813.72346949999985
 30
0.0
 11
-100.0000000000005
 21
-895.0
 31
0.0
  0
LINE
  5
206
  8
DIMNSIONS
  6
CONTINUOUS
 62
     7
 10
123.9829911999995
 20
-798.48715170297078
 30
0.0
 11
123.9829911999995
 21
-895.0
 31
0.0
  0
LINE
  5
207
  8
DIMNSIONS
  6
CONTINUOUS
 62
     7
 10
-100.0000000000005
 20
-875.0
 30
0.0
 11
123.9829911999995
 21
-875.0
 31
0.0
  0
LINE
  5
208
  8
DIMNSIONS
  6
CONTINUOUS
 62
     7
 10
-100.0000000000005
 20
-875.0
 30
0.0
 11
-74.993774414062983
 21
-868.2996020484976
 31
0.0
  0
LINE
  5
209
  8
DIMNSIONS
  6
CONTINUOUS
 62
     7
 10
-100.0000000000005
 20
-875.0
 30
0.0
 11
-74.993774414062983
 21
-881.70039795150228
 31
0.0
  0
LINE
  5
20A
  8
DIMNSIONS
  6
CONTINUOUS
 62
     7
 10
123.9829911999995
 20
-875.0
 30
0.0
 11
98.976765614062046
 21
-881.70039795150228
 31
0.0
  0
LINE
  5
20B
  8
DIMNSIONS
  6
CONTINUOUS
 62
     7
 10
123.9829911999995
 20
-875.0
 30
0.0
 11
98.976765614062046
 21
-868.2996020484976
 31
0.0
  0
TEXT
  5
20C
  8
DIMNSIONS
 62
     7
 10
23.54166666666665
 20
-865.06111111111113
 30
0.0
 40
27.147352430555561
  1
224
 41
0.8
 11
23.54166666666665
 21
-837.91375868055547
 31
0.0
 73
     3
  0
LINE
  5
20D
  8
DIMNSIONS
  6
CONTINUOUS
 62
     7
 10
-68.742008800000363
 20
-799.99999999999125
 30
0.0
 11
245.0
 21
-799.99999999999125
 31
0.0
  0
LINE
  5
20E
  8
DIMNSIONS
  6
CONTINUOUS
 62
     7
 10
204.98299119999999
 20
-608.90108470037239
 30
0.0
 11
245.0
 21
-608.90108470037239
 31
0.0
  0
LINE
  5
20F
  8
DIMNSIONS
  6
CONTINUOUS
 62
     7
 10
225.0
 20
-799.99999999999125
 30
0.0
 11
225.0
 21
-608.90108470037239
 31
0.0
  0
LINE
  5
210
  8
DIMNSIONS
  6
CONTINUOUS
 62
     7
 10
225.0
 20
-799.99999999999125
 30
0.0
 11
218.2996020484976
 21
-774.99377441405375
 31
0.0
  0
LINE
  5
211
  8
DIMNSIONS
  6
CONTINUOUS
 62
     7
 10
225.0
 20
-799.99999999999125
 30
0.0
 11
231.7003979515024
 21
-774.99377441405375
 31
0.0
  0
LINE
  5
212
  8
DIMNSIONS
  6
CONTINUOUS
 62
     7
 10
225.0
 20
-608.90108470037239
 30
0.0
 11
231.7003979515024
 21
-633.90731028630989
 31
0.0
  0
LINE
  5
213
  8
DIMNSIONS
  6
CONTINUOUS
 62
     7
 10
225.0
 20
-608.90108470037239
 30
0.0
 11
218.2996020484976
 21
-633.90731028630989
 31
0.0
  0
TEXT
  5
214
  8
DIMNSIONS
 62
     7
 10
215.0611111111111
 20
-730.90887568351525
 30
0.0
 40
27.147352430555561
  1
191
 50
90.0
 41
0.8
 11
187.9137586805555
 21
-730.90887568351525
 31
0.0
 73
     3
  0
LINE
  5
215
  8
DIMNSIONS
  6
CONTINUOUS
 62
     7
 10
-450.00000000000051
 20
370.0
 30
0.0
 11
-450.00000000000051
 21
470.00000000000011
 31
0.0
  0
LINE
  5
216
  8
DIMNSIONS
  6
CONTINUOUS
 62
     7
 10
-425.0
 20
404.49999999999977
 30
0.0
 11
-425.0
 21
470.00000000000011
 31
0.0
  0
LINE
  5
217
  8
DIMNSIONS
  6
CONTINUOUS
 62
     7
 10
-425.0
 20
450.00000000000011
 30
0.0
 11
-450.00000000000051
 21
450.00000000000011
 31
0.0
  0
LINE
  5
218
  8
DIMNSIONS
  6
CONTINUOUS
 62
     7
 10
-450.00000000000051
 20
450.00000000000011
 30
0.0
 11
-517.77777777777783
 21
450.00000000000011
 31
0.0
  0
LINE
  5
219
  8
DIMNSIONS
  6
CONTINUOUS
 62
     7
 10
-450.00000000000051
 20
450.00000000000011
 30
0.0
 11
-475.00622558593801
 21
443.29960204849772
 31
0.0
  0
LINE
  5
21A
  8
DIMNSIONS
  6
CONTINUOUS
 62
     7
 10
-450.00000000000051
 20
450.00000000000011
 30
0.0
 11
-475.00622558593801
 21
456.70039795150262
 31
0.0
  0
LINE
  5
21B
  8
DIMNSIONS
  6
CONTINUOUS
 62
     7
 10
-425.0
 20
450.00000000000011
 30
0.0
 11
-375.0
 21
450.00000000000011
 31
0.0
  0
LINE
  5
21C
  8
DIMNSIONS
  6
CONTINUOUS
 62
     7
 10
-425.0
 20
450.00000000000011
 30
0.0
 11
-399.9937744140625
 21
456.70039795150262
 31
0.0
  0
LINE
  5
21D
  8
DIMNSIONS
  6
CONTINUOUS
 62
     7
 10
-425.0
 20
450.00000000000011
 30
0.0
 11
-399.9937744140625
 21
443.29960204849772
 31
0.0
  0
TEXT
  5
21E
  8
DIMNSIONS
 62
     7
 10
-517.77777777777783
 20
459.93888888888898
 30
0.0
 40
27.147352430555561
  1
25
 41
0.8
 11
-517.77777777777783
 21
487.08624131944458
 31
0.0
 73
     3
  0
LINE
  5
21F
  8
DIMNSIONS
  6
CONTINUOUS
 62
     7
 10
-425.0
 20
404.49999999999977
 30
0.0
 11
-425.0
 21
520.00000000000011
 31
0.0
  0
LINE
  5
220
  8
DIMNSIONS
  6
CONTINUOUS
 62
     7
 10
-400.0
 20
370.0
 30
0.0
 11
-400.0
 21
520.00000000000011
 31
0.0
  0
LINE
  5
221
  8
DIMNSIONS
  6
CONTINUOUS
 62
     7
 10
-400.0
 20
500.00000000000011
 30
0.0
 11
-425.0
 21
500.00000000000011
 31
0.0
  0
LINE
  5
222
  8
DIMNSIONS
  6
CONTINUOUS
 62
     7
 10
-425.0
 20
500.00000000000011
 30
0.0
 11
-517.77777777777783
 21
500.00000000000011
 31
0.0
  0
LINE
  5
223
  8
DIMNSIONS
  6
CONTINUOUS
 62
     7
 10
-425.0
 20
500.00000000000011
 30
0.0
 11
-450.0062255859375
 21
493.29960204849772
 31
0.0
  0
LINE
  5
224
  8
DIMNSIONS
  6
CONTINUOUS
 62
     7
 10
-425.0
 20
500.00000000000011
 30
0.0
 11
-450.0062255859375
 21
506.70039795150262
 31
0.0
  0
LINE
  5
225
  8
DIMNSIONS
  6
CONTINUOUS
 62
     7
 10
-400.0
 20
500.00000000000011
 30
0.0
 11
-350.0
 21
500.00000000000011
 31
0.0
  0
LINE
  5
226
  8
DIMNSIONS
  6
CONTINUOUS
 62
     7
 10
-400.0
 20
500.00000000000011
 30
0.0
 11
-374.9937744140625
 21
506.70039795150262
 31
0.0
  0
LINE
  5
227
  8
DIMNSIONS
  6
CONTINUOUS
 62
     7
 10
-400.0
 20
500.00000000000011
 30
0.0
 11
-374.9937744140625
 21
493.29960204849772
 31
0.0
  0
TEXT
  5
228
  8
DIMNSIONS
 62
     7
 10
-517.77777777777783
 20
509.93888888888898
 30
0.0
 40
27.147352430555561
  1
25
 41
0.8
 11
-517.77777777777783
 21
537.08624131944464
 31
0.0
 73
     3
  0
LINE
  5
229
  8
DIMNSIONS
  6
CONTINUOUS
 62
     7
 10
-400.0
 20
370.0
 30
0.0
 11
-400.0
 21
495.00000000000011
 31
0.0
  0
LINE
  5
22A
  8
DIMNSIONS
  6
CONTINUOUS
 62
     7
 10
-390.0
 20
412.00000000000011
 30
0.0
 11
-390.0
 21
495.00000000000011
 31
0.0
  0
LINE
  5
22B
  8
DIMNSIONS
  6
CONTINUOUS
 62
     7
 10
-390.0
 20
475.00000000000011
 30
0.0
 11
-400.0
 21
475.00000000000011
 31
0.0
  0
LINE
  5
22C
  8
DIMNSIONS
  6
CONTINUOUS
 62
     7
 10
-400.0
 20
475.00000000000011
 30
0.0
 11
-450.0
 21
475.00000000000011
 31
0.0
  0
LINE
  5
22D
  8
DIMNSIONS
  6
CONTINUOUS
 62
     7
 10
-400.0
 20
475.00000000000011
 30
0.0
 11
-425.0062255859375
 21
468.29960204849772
 31
0.0
  0
LINE
  5
22E
  8
DIMNSIONS
  6
CONTINUOUS
 62
     7
 10
-400.0
 20
475.00000000000011
 30
0.0
 11
-425.0062255859375
 21
481.70039795150262
 31
0.0
  0
LINE
  5
22F
  8
DIMNSIONS
  6
CONTINUOUS
 62
     7
 10
-390.0
 20
475.00000000000011
 30
0.0
 11
-297.22222222222217
 21
475.00000000000011
 31
0.0
  0
LINE
  5
230
  8
DIMNSIONS
  6
CONTINUOUS
 62
     7
 10
-390.0
 20
475.00000000000011
 30
0.0
 11
-364.9937744140625
 21
481.70039795150262
 31
0.0
  0
LINE
  5
231
  8
DIMNSIONS
  6
CONTINUOUS
 62
     7
 10
-390.0
 20
475.00000000000011
 30
0.0
 11
-364.9937744140625
 21
468.29960204849772
 31
0.0
  0
TEXT
  5
232
  8
DIMNSIONS
 62
     7
 10
-332.5
 20
484.93888888888898
 30
0.0
 40
27.147352430555561
  1
10
 41
0.8
 11
-332.5
 21
512.08624131944464
 31
0.0
 73
     3
  0
LINE
  5
233
  8
DIMNSIONS
  6
CONTINUOUS
 62
     7
 10
-460.0000000000004
 20
412.00000000000011
 30
0.0
 11
-460.0000000000004
 21
570.00000000000011
 31
0.0
  0
LINE
  5
234
  8
DIMNSIONS
  6
CONTINUOUS
 62
     7
 10
-390.0
 20
412.00000000000011
 30
0.0
 11
-390.0
 21
570.00000000000011
 31
0.0
  0
LINE
  5
235
  8
DIMNSIONS
  6
CONTINUOUS
 62
     7
 10
-460.0000000000004
 20
550.0
 30
0.0
 11
-390.0
 21
550.0
 31
0.0
  0
LINE
  5
236
  8
DIMNSIONS
  6
CONTINUOUS
 62
     7
 10
-460.0000000000004
 20
550.0
 30
0.0
 11
-434.9937744140629
 21
556.70039795150274
 31
0.0
  0
LINE
  5
237
  8
DIMNSIONS
  6
CONTINUOUS
 62
     7
 10
-460.0000000000004
 20
550.0
 30
0.0
 11
-434.9937744140629
 21
543.29960204849772
 31
0.0
  0
LINE
  5
238
  8
DIMNSIONS
  6
CONTINUOUS
 62
     7
 10
-390.0
 20
550.0
 30
0.0
 11
-415.00622558593739
 21
543.29960204849772
 31
0.0
  0
LINE
  5
239
  8
DIMNSIONS
  6
CONTINUOUS
 62
     7
 10
-390.0
 20
550.0
 30
0.0
 11
-415.00622558593739
 21
556.70039795150274
 31
0.0
  0
TEXT
  5
23A
  8
DIMNSIONS
 62
     7
 10
-442.63888888888908
 20
559.93888888888898
 30
0.0
 40
27.147352430555561
  1
70
 41
0.8
 11
-442.63888888888908
 21
587.08624131944464
 31
0.0
 73
     3
  0
LINE
  5
23B
  8
DIMNSIONS
  6
CONTINUOUS
 62
     7
 10
-428.07428614292201
 20
313.6268303036149
 30
0.0
 11
-532.5
 21
250.00000000000031
 31
0.0
  0
LINE
  5
23C
  8
DIMNSIONS
  6
CONTINUOUS
 62
     7
 10
-428.07428614292201
 20
313.6268303036149
 30
0.0
 11
-446.05784496709509
 21
295.00430999134772
 31
0.0
  0
LINE
  5
23D
  8
DIMNSIONS
  6
CONTINUOUS
 62
     7
 10
-428.07428614292201
 20
313.6268303036149
 30
0.0
 11
-452.95976509124131
 21
306.4910340427864
 31
0.0
  0
LINE
  5
23E
  8
DIMNSIONS
  6
CONTINUOUS
 62
     7
 10
-532.5
 20
250.00000000000031
 30
0.0
 11
-384.30555555555549
 21
250.00000000000031
 31
0.0
  0
TEXT
  5
23F
  8
DIMNSIONS
 62
     7
 10
-472.5
 20
259.93888888888921
 30
0.0
 40
27.147352430555561
  1
4-φ7
 41
0.8
 11
-472.5
 21
287.0862413194447
 31
0.0
 73
     3
  0
LINE
  5
240
  8
DIMNSIONS
  6
CONTINUOUS
 62
     7
 10
-380.0
 20
350.0
 30
0.0
 11
-255.0
 21
350.0
 31
0.0
  0
LINE
  5
241
  8
DIMNSIONS
  6
CONTINUOUS
 62
     7
 10
-405.0
 20
384.49999999999977
 30
0.0
 11
-255.0
 21
384.49999999999977
 31
0.0
  0
LINE
  5
242
  8
DIMNSIONS
  6
CONTINUOUS
 62
     7
 10
-275.0
 20
384.49999999999977
 30
0.0
 11
-275.0
 21
350.0
 31
0.0
  0
LINE
  5
243
  8
DIMNSIONS
  6
CONTINUOUS
 62
     7
 10
-275.0
 20
350.0
 30
0.0
 11
-275.0
 21
204.44444444444471
 31
0.0
  0
LINE
  5
244
  8
DIMNSIONS
  6
CONTINUOUS
 62
     7
 10
-275.0
 20
350.0
 30
0.0
 11
-268.2996020484976
 21
324.9937744140625
 31
0.0
  0
LINE
  5
245
  8
DIMNSIONS
  6
CONTINUOUS
 62
     7
 10
-275.0
 20
350.0
 30
0.0
 11
-281.7003979515024
 21
324.9937744140625
 31
0.0
  0
LINE
  5
246
  8
DIMNSIONS
  6
CONTINUOUS
 62
     7
 10
-275.0
 20
384.49999999999977
 30
0.0
 11
-275.0
 21
434.49999999999972
 31
0.0
  0
LINE
  5
247
  8
DIMNSIONS
  6
CONTINUOUS
 62
     7
 10
-275.0
 20
384.49999999999977
 30
0.0
 11
-281.7003979515024
 21
409.50622558593727
 31
0.0
  0
LINE
  5
248
  8
DIMNSIONS
  6
CONTINUOUS
 62
     7
 10
-275.0
 20
384.49999999999977
 30
0.0
 11
-268.2996020484976
 21
409.50622558593727
 31
0.0
  0
TEXT
  5
249
  8
DIMNSIONS
 62
     7
 10
-284.93888888888881
 20
204.44444444444471
 30
0.0
 40
27.147352430555561
  1
34.5
 50
90.0
 41
0.8
 11
-312.08624131944441
 21
204.44444444444471
 31
0.0
 73
     3
  0
LINE
  5
24A
  8
DIMNSIONS
  6
CONTINUOUS
 62
     7
 10
-380.0
 20
350.0
 30
0.0
 11
-305.0
 21
350.0
 31
0.0
  0
LINE
  5
24B
  8
DIMNSIONS
  6
CONTINUOUS
 62
     7
 10
-405.0
 20
315.5
 30
0.0
 11
-305.0
 21
315.5
 31
0.0
  0
LINE
  5
24C
  8
DIMNSIONS
  6
CONTINUOUS
 62
     7
 10
-325.0
 20
315.5
 30
0.0
 11
-325.0
 21
350.0
 31
0.0
  0
LINE
  5
24D
  8
DIMNSIONS
  6
CONTINUOUS
 62
     7
 10
-325.0
 20
350.0
 30
0.0
 11
-325.0
 21
400.0
 31
0.0
  0
LINE
  5
24E
  8
DIMNSIONS
  6
CONTINUOUS
 62
     7
 10
-325.0
 20
350.0
 30
0.0
 11
-331.7003979515024
 21
375.0062255859375
 31
0.0
  0
LINE
  5
24F
  8
DIMNSIONS
  6
CONTINUOUS
 62
     7
 10
-325.0
 20
350.0
 30
0.0
 11
-318.2996020484976
 21
375.0062255859375
 31
0.0
  0
LINE
  5
250
  8
DIMNSIONS
  6
CONTINUOUS
 62
     7
 10
-325.0
 20
315.5
 30
0.0
 11
-325.0
 21
206.6395663956645
 31
0.0
  0
LINE
  5
251
  8
DIMNSIONS
  6
CONTINUOUS
 62
     7
 10
-325.0
 20
315.5
 30
0.0
 11
-318.2996020484976
 21
290.4937744140625
 31
0.0
  0
LINE
  5
252
  8
DIMNSIONS
  6
CONTINUOUS
 62
     7
 10
-325.0
 20
315.5
 30
0.0
 11
-331.7003979515024
 21
290.4937744140625
 31
0.0
  0
TEXT
  5
253
  8
DIMNSIONS
 62
     7
 10
-334.93888888888881
 20
206.6395663956645
 30
0.0
 40
27.147352430555561
  1
34.5
 50
90.0
 41
0.8
 11
-362.08624131944441
 21
206.6395663956645
 31
0.0
 73
     3
  0
LINE
  5
254
  8
DIMNSIONS
  6
CONTINUOUS
 62
     7
 10
-373.0
 20
395.00000000000023
 30
0.0
 11
-205.0
 21
395.00000000000023
 31
0.0
  0
LINE
  5
255
  8
DIMNSIONS
  6
CONTINUOUS
 62
     7
 10
-405.0
 20
384.49999999999977
 30
0.0
 11
-205.0
 21
384.49999999999977
 31
0.0
  0
LINE
  5
256
  8
DIMNSIONS
  6
CONTINUOUS
 62
     7
 10
-225.0
 20
384.49999999999977
 30
0.0
 11
-225.0
 21
395.00000000000023
 31
0.0
  0
LINE
  5
257
  8
DIMNSIONS
  6
CONTINUOUS
 62
     7
 10
-225.0
 20
395.00000000000023
 30
0.0
 11
-225.0
 21
495.55555555555571
 31
0.0
  0
LINE
  5
258
  8
DIMNSIONS
  6
CONTINUOUS
 62
     7
 10
-225.0
 20
395.00000000000023
 30
0.0
 11
-231.7003979515024
 21
420.00622558593773
 31
0.0
  0
LINE
  5
259
  8
DIMNSIONS
  6
CONTINUOUS
 62
     7
 10
-225.0
 20
395.00000000000023
 30
0.0
 11
-218.2996020484976
 21
420.00622558593773
 31
0.0
  0
LINE
  5
25A
  8
DIMNSIONS
  6
CONTINUOUS
 62
     7
 10
-225.0
 20
384.49999999999977
 30
0.0
 11
-225.0
 21
334.49999999999972
 31
0.0
  0
LINE
  5
25B
  8
DIMNSIONS
  6
CONTINUOUS
 62
     7
 10
-225.0
 20
384.49999999999977
 30
0.0
 11
-218.2996020484976
 21
359.49377441406227
 31
0.0
  0
LINE
  5
25C
  8
DIMNSIONS
  6
CONTINUOUS
 62
     7
 10
-225.0
 20
384.49999999999977
 30
0.0
 11
-231.7003979515024
 21
359.49377441406227
 31
0.0
  0
TEXT
  5
25D
  8
DIMNSIONS
 62
     7
 10
-234.93888888888881
 20
425.00000000000011
 30
0.0
 40
27.147352430555561
  1
10.5
 50
90.0
 41
0.8
 11
-262.08624131944441
 21
425.00000000000011
 31
0.0
 73
     3
  0
LINE
  5
25E
  8
DIMNSIONS
  6
CONTINUOUS
 62
     7
 10
-373.0
 20
305.0
 30
0.0
 11
-155.0
 21
305.0
 31
0.0
  0
LINE
  5
25F
  8
DIMNSIONS
  6
CONTINUOUS
 62
     7
 10
-373.0
 20
395.00000000000023
 30
0.0
 11
-155.0
 21
395.00000000000023
 31
0.0
  0
LINE
  5
260
  8
DIMNSIONS
  6
CONTINUOUS
 62
     7
 10
-175.0
 20
305.0
 30
0.0
 11
-175.0
 21
395.00000000000023
 31
0.0
  0
LINE
  5
261
  8
DIMNSIONS
  6
CONTINUOUS
 62
     7
 10
-175.0
 20
305.0
 30
0.0
 11
-181.7003979515024
 21
330.0062255859375
 31
0.0
  0
LINE
  5
262
  8
DIMNSIONS
  6
CONTINUOUS
 62
     7
 10
-175.0
 20
305.0
 30
0.0
 11
-168.2996020484976
 21
330.0062255859375
 31
0.0
  0
LINE
  5
263
  8
DIMNSIONS
  6
CONTINUOUS
 62
     7
 10
-175.0
 20
395.00000000000023
 30
0.0
 11
-168.2996020484976
 21
369.99377441406273
 31
0.0
  0
LINE
  5
264
  8
DIMNSIONS
  6
CONTINUOUS
 62
     7
 10
-175.0
 20
395.00000000000023
 30
0.0
 11
-181.7003979515024
 21
369.99377441406273
 31
0.0
  0
TEXT
  5
265
  8
DIMNSIONS
 62
     7
 10
-184.93888888888901
 20
332.3611111111112
 30
0.0
 40
27.147352430555561
  1
90
 50
90.0
 41
0.8
 11
-212.08624131944461
 21
332.3611111111112
 31
0.0
 73
     3
  0
LINE
  5
266
  8
DIMNSIONS
  6
CONTINUOUS
 62
     7
 10
-680.0
 20
525.0
 30
0.0
 11
-720.0
 21
525.0
 31
0.0
  0
LINE
  5
267
  8
DIMNSIONS
  6
CONTINUOUS
 62
     7
 10
-645.0
 20
429.60000000000031
 30
0.0
 11
-720.0
 21
429.60000000000031
 31
0.0
  0
LINE
  5
268
  8
DIMNSIONS
  6
CONTINUOUS
 62
     7
 10
-700.0
 20
525.0
 30
0.0
 11
-700.0
 21
429.60000000000031
 31
0.0
  0
LINE
  5
269
  8
DIMNSIONS
  6
CONTINUOUS
 62
     7
 10
-700.0
 20
525.0
 30
0.0
 11
-693.2996020484976
 21
499.99377441406273
 31
0.0
  0
LINE
  5
26A
  8
DIMNSIONS
  6
CONTINUOUS
 62
     7
 10
-700.0
 20
525.0
 30
0.0
 11
-706.7003979515024
 21
499.99377441406273
 31
0.0
  0
LINE
  5
26B
  8
DIMNSIONS
  6
CONTINUOUS
 62
     7
 10
-700.0
 20
429.60000000000031
 30
0.0
 11
-706.7003979515024
 21
454.60622558593781
 31
0.0
  0
LINE
  5
26C
  8
DIMNSIONS
  6
CONTINUOUS
 62
     7
 10
-700.0
 20
429.60000000000031
 30
0.0
 11
-693.2996020484976
 21
454.60622558593781
 31
0.0
  0
TEXT
  5
26D
  8
DIMNSIONS
 62
     7
 10
-709.93888888888875
 20
442.02222222222252
 30
0.0
 40
27.147352430555561
  1
95.4
 50
90.0
 41
0.8
 11
-737.08624131944441
 21
442.02222222222252
 31
0.0
 73
     3
  0
LINE
  5
26E
  8
DIMNSIONS
  6
CONTINUOUS
 62
     7
 10
-677.0
 20
305.0
 30
0.0
 11
-720.0
 21
305.0
 31
0.0
  0
LINE
  5
26F
  8
DIMNSIONS
  6
CONTINUOUS
 62
     7
 10
-676.0
 20
394.99999999999977
 30
0.0
 11
-720.0
 21
394.99999999999977
 31
0.0
  0
LINE
  5
270
  8
DIMNSIONS
  6
CONTINUOUS
 62
     7
 10
-700.0
 20
305.0
 30
0.0
 11
-700.0
 21
394.99999999999977
 31
0.0
  0
LINE
  5
271
  8
DIMNSIONS
  6
CONTINUOUS
 62
     7
 10
-700.0
 20
305.0
 30
0.0
 11
-706.7003979515024
 21
330.0062255859375
 31
0.0
  0
LINE
  5
272
  8
DIMNSIONS
  6
CONTINUOUS
 62
     7
 10
-700.0
 20
305.0
 30
0.0
 11
-693.2996020484976
 21
330.0062255859375
 31
0.0
  0
LINE
  5
273
  8
DIMNSIONS
  6
CONTINUOUS
 62
     7
 10
-700.0
 20
394.99999999999977
 30
0.0
 11
-693.2996020484976
 21
369.99377441406227
 31
0.0
  0
LINE
  5
274
  8
DIMNSIONS
  6
CONTINUOUS
 62
     7
 10
-700.0
 20
394.99999999999977
 30
0.0
 11
-706.7003979515024
 21
369.99377441406227
 31
0.0
  0
TEXT
  5
275
  8
DIMNSIONS
 62
     7
 10
-709.93888888888875
 20
332.36111111111097
 30
0.0
 40
27.147352430555561
  1
90
 50
90.0
 41
0.8
 11
-737.08624131944441
 21
332.36111111111097
 31
0.0
 73
     3
  0
LINE
  5
276
  8
DIMNSIONS
  6
CONTINUOUS
 62
     7
 10
-660.0
 20
288.0
 30
0.0
 11
-660.0
 21
230.0
 31
0.0
  0
LINE
  5
277
  8
DIMNSIONS
  6
CONTINUOUS
 62
     7
 10
-590.0
 20
288.0
 30
0.0
 11
-590.0
 21
230.0
 31
0.0
  0
LINE
  5
278
  8
DIMNSIONS
  6
CONTINUOUS
 62
     7
 10
-660.0
 20
250.0
 30
0.0
 11
-590.0
 21
250.0
 31
0.0
  0
LINE
  5
279
  8
DIMNSIONS
  6
CONTINUOUS
 62
     7
 10
-660.0
 20
250.0
 30
0.0
 11
-634.9937744140625
 21
256.7003979515024
 31
0.0
  0
LINE
  5
27A
  8
DIMNSIONS
  6
CONTINUOUS
 62
     7
 10
-660.0
 20
250.0
 30
0.0
 11
-634.9937744140625
 21
243.2996020484976
 31
0.0
  0
LINE
  5
27B
  8
DIMNSIONS
  6
CONTINUOUS
 62
     7
 10
-590.0
 20
250.0
 30
0.0
 11
-615.00622558593739
 21
243.2996020484976
 31
0.0
  0
LINE
  5
27C
  8
DIMNSIONS
  6
CONTINUOUS
 62
     7
 10
-590.0
 20
250.0
 30
0.0
 11
-615.00622558593739
 21
256.7003979515024
 31
0.0
  0
TEXT
  5
27D
  8
DIMNSIONS
 62
     7
 10
-642.6388888888888
 20
259.93888888888881
 30
0.0
 40
27.147352430555561
  1
70
 41
0.8
 11
-642.6388888888888
 21
287.08624131944441
 31
0.0
 73
     3
  0
LINE
  5
27E
  8
DIMNSIONS
  6
CONTINUOUS
 62
     7
 10
-666.82500000000027
 20
-800.0
 30
0.0
 11
-720.0
 21
-800.0
 31
0.0
  0
LINE
  5
27F
  8
DIMNSIONS
  6
CONTINUOUS
 62
     7
 10
-666.82500000000027
 20
-418.44434960000001
 30
0.0
 11
-720.0
 21
-418.44434960000001
 31
0.0
  0
LINE
  5
280
  8
DIMNSIONS
  6
CONTINUOUS
 62
     7
 10
-700.0
 20
-800.0
 30
0.0
 11
-700.0
 21
-418.44434960000001
 31
0.0
  0
LINE
  5
281
  8
DIMNSIONS
  6
CONTINUOUS
 62
     7
 10
-700.0
 20
-800.0
 30
0.0
 11
-706.7003979515024
 21
-774.99377441406239
 31
0.0
  0
LINE
  5
282
  8
DIMNSIONS
  6
CONTINUOUS
 62
     7
 10
-700.0
 20
-800.0
 30
0.0
 11
-693.2996020484976
 21
-774.99377441406239
 31
0.0
  0
LINE
  5
283
  8
DIMNSIONS
  6
CONTINUOUS
 62
     7
 10
-700.0
 20
-418.44434960000001
 30
0.0
 11
-693.2996020484976
 21
-443.45057518593768
 31
0.0
  0
LINE
  5
284
  8
DIMNSIONS
  6
CONTINUOUS
 62
     7
 10
-700.0
 20
-418.44434960000001
 30
0.0
 11
-706.7003979515024
 21
-443.45057518593768
 31
0.0
  0
TEXT
  5
285
  8
DIMNSIONS
 62
     7
 10
-709.93888888888875
 20
-635.68050813333355
 30
0.0
 40
27.147352430555561
  1
382
 50
90.0
 41
0.8
 11
-737.08624131944441
 21
-635.68050813333355
 31
0.0
 73
     3
  0
TEXT
  5
286
  8
DATA
 62
     7
 10
599.99999999999989
 20
-944.40476499999988
 30
0.0
 40
24.4326171875
  1
JBL
 41
0.8
 11
599.99999999999989
 21
-919.97214781249988
 31
0.0
 73
     3
  0
TEXT
  5
287
  8
DATA
 62
     7
 10
-699.99999999999989
 20
-1085.8336650000001
 30
0.0
 40
16.288411458333329
  1
仕様および外観は予告なく変更されることがありますので、ご了承ください。
 41
0.8
 11
-699.99999999999989
 21
-1069.5452535416659
 31
0.0
 73
     3
  0
LINE
  5
288
  8
DATA
  6
CONTINUOUS
 62
     7
 10
-88.465275799999759
 20
-799.98790959999985
 30
0.0
 11
121.0801466091993
 21
-781.65505083001892
 31
0.0
  0
LINE
  5
289
  8
DATA
  6
CONTINUOUS
 62
     7
 10
-88.465275799999759
 20
-418.45641460000002
 30
0.0
 11
121.0801466091993
 21
-436.78927336998458
 31
0.0
  0
LINE
  5
28A
  8
DATA
  6
CONTINUOUS
 62
     7
 10
-636.4317772000004
 20
-796.60175939999965
 30
0.0
 11
-384.16822280000002
 21
-796.60175939999965
 31
0.0
  0
LINE
  5
28B
  8
DATA
  6
CONTINUOUS
 62
     7
 10
-624.93174940000017
 20
-791.14936999999975
 30
0.0
 11
-395.66825060000008
 21
-791.14936999999975
 31
0.0
  0
LINE
  5
28C
  8
DATA
  6
CONTINUOUS
 62
     7
 10
-384.16822280000002
 20
-421.84261560000022
 30
0.0
 11
-636.4317772000004
 21
-421.84261560000022
 31
0.0
  0
LINE
  5
28D
  8
DATA
  6
CONTINUOUS
 62
     7
 10
-382.00922280000032
 20
-427.95753860000008
 30
0.0
 11
-638.59077720000016
 21
-427.95753860000008
 31
0.0
  0
LINE
  5
28E
  8
DATA
  6
CONTINUOUS
 62
     7
 10
-483.1324140000001
 20
-782.64771059999987
 30
0.0
 11
-429.69477640000008
 21
-768.12432079999985
 31
0.0
  0
ARC
  5
28F
  8
DATA
  6
CONTINUOUS
 62
     7
 10
-532.27072284500525
 20
-828.15126581053494
 30
0.0
 40
163.15481997710091
 50
47.413560435655882
 51
58.271070705691038
  0
ARC
  5
290
  8
DATA
  6
CONTINUOUS
 62
     7
 10
-416.24269075894551
 20
-525.7578518847838
 30
0.0
 40
51.053084925283777
 50
46.334467881648727
 51
126.7653983560094
  0
ARC
  5
291
  8
DATA
  6
CONTINUOUS
 62
     7
 10
-510.30000000000013
 20
-682.68682339999987
 30
0.0
 40
77.999996400000001
 50
111.8734890242733
 51
348.64597999999989
  0
ARC
  5
292
  8
DATA
  6
CONTINUOUS
 62
     7
 10
-510.30000000000013
 20
-682.68682339999987
 30
0.0
 40
87.000003799999945
 50
114.1133798267291
 51
345.59914309250809
  0
ARC
  5
293
  8
DATA
  6
CONTINUOUS
 62
     7
 10
-510.30000000000013
 20
-682.68682339999987
 30
0.0
 40
91.995345599999922
 50
113.07846879226371
 51
344.01981345333411
  0
LINE
  5
294
  8
DATA
  6
CONTINUOUS
 62
     7
 10
-373.77999999999969
 20
-418.44434960000001
 30
0.0
 11
-646.82500000000016
 21
-418.44434960000001
 31
0.0
  0
LINE
  5
295
  8
DATA
  6
CONTINUOUS
 62
     7
 10
-646.82500000000016
 20
-800.0
 30
0.0
 11
-373.77999999999969
 21
-800.00000000000011
 31
0.0
  0
ARC
  5
296
  8
DATA
  6
CONTINUOUS
 62
     7
 10
-510.30000000000291
 20
3122.798525970315
 30
0.0
 40
3345.298525970315
 50
267.87458367191778
 51
272.12541632808228
  0
ARC
  5
297
  8
DATA
  6
CONTINUOUS
 62
     7
 10
-510.30000000000291
 20
3120.298525970315
 30
0.0
 40
3345.298525970315
 50
267.78477805530878
 51
272.21522194469128
  0
ARC
  5
298
  8
DATA
  6
CONTINUOUS
 62
     7
 10
-454.39814044794912
 20
-21.01700880000044
 30
0.0
 40
19.999999999999979
 50
22.699999999999712
 51
90.0
  0
LINE
  5
299
  8
DATA
  6
CONTINUOUS
 62
     7
 10
-650.0
 20
-796.82499999999982
 30
0.0
 11
-650.0
 21
-421.61934960000031
 31
0.0
  0
LINE
  5
29A
  8
DATA
  6
CONTINUOUS
 62
     7
 10
-639.60677720000012
 20
-425.0176156
 30
0.0
 11
-639.60677720000012
 21
-793.42675940000004
 31
0.0
  0
LINE
  5
29B
  8
DATA
  6
CONTINUOUS
 62
     7
 10
-637.63174939999999
 20
-440.65753860000012
 30
0.0
 11
-637.63174939999999
 21
-778.44937000000004
 31
0.0
  0
LINE
  5
29C
  8
DATA
  6
CONTINUOUS
 62
     7
 10
-638.59077720000016
 20
-427.95753860000008
 30
0.0
 11
-638.59077720000016
 21
-791.14936999999975
 31
0.0
  0
LINE
  5
29D
  8
DATA
  6
CONTINUOUS
 62
     7
 10
-604.25769880000018
 20
-633.4310164000002
 30
0.0
 11
-595.73749740000005
 21
-602.08159980000005
 31
0.0
  0
ARC
  5
29E
  8
DATA
  6
CONTINUOUS
 62
     7
 10
-552.1582543612011
 20
-657.13272846654695
 30
0.0
 40
44.486463481937527
 50
28.2253576110684
 51
53.433108541052121
  0
ARC
  5
29F
  8
DATA
  6
CONTINUOUS
 62
     7
 10
-576.42626725972104
 20
-641.30392436425007
 30
0.0
 40
21.143799834470251
 50
107.8703354028425
 51
147.60284779728539
  0
ARC
  5
2A0
  8
DATA
  6
CONTINUOUS
 62
     7
 10
-510.30000000000013
 20
-682.68682339999987
 30
0.0
 40
103.5869404000002
 50
254.7952939999997
 51
285.20470599999987
  0
LINE
  5
2A1
  8
DATA
  6
CONTINUOUS
 62
     7
 10
-610.26088720000018
 20
-655.51923739999984
 30
0.0
 11
-604.25769880000018
 21
-633.4310164000002
 31
0.0
  0
LINE
  5
2A2
  8
DATA
  6
CONTINUOUS
 62
     7
 10
-610.26088720000018
 20
-709.85443479999981
 30
0.0
 11
-595.73749740000005
 21
-763.29204700000014
 31
0.0
  0
ARC
  5
2A3
  8
DATA
  6
CONTINUOUS
 62
     7
 10
-636.4317772000004
 20
-793.42675940000004
 30
0.0
 40
3.1749999999997272
 50
180.0
 51
270.0
  0
ARC
  5
2A4
  8
DATA
  6
CONTINUOUS
 62
     7
 10
-646.82500000000016
 20
-796.82499999999982
 30
0.0
 40
3.1749999999997272
 50
180.0
 51
270.0
  0
LINE
  5
2A5
  8
DATA
  6
CONTINUOUS
 62
     7
 10
-638.59077720000016
 20
-791.14936999999975
 30
0.0
 11
-624.93174940000017
 21
-791.14936999999975
 31
0.0
  0
LINE
  5
2A6
  8
DATA
  6
CONTINUOUS
 62
     7
 10
-626.45574940000006
 20
-788.10136999999975
 30
0.0
 11
-633.82174940000004
 21
-788.10136999999975
 31
0.0
  0
LINE
  5
2A7
  8
DATA
  6
CONTINUOUS
 62
     7
 10
-634.5837494000001
 20
-787.3393699999998
 30
0.0
 11
-634.5837494000001
 21
-779.97336999999982
 31
0.0
  0
ARC
  5
2A8
  8
DATA
  6
CONTINUOUS
 62
     7
 10
-633.82174940000004
 20
-787.3393699999998
 30
0.0
 40
0.7619999999997164
 50
180.0
 51
270.0
  0
ARC
  5
2A9
  8
DATA
  6
CONTINUOUS
 62
     7
 10
-636.10774939999999
 20
-779.97336999999982
 30
0.0
 40
1.523999999999887
 50
0.0
 51
90.0
  0
LINE
  5
2AA
  8
DATA
  6
CONTINUOUS
 62
     7
 10
-636.10774939999999
 20
-778.44937000000004
 30
0.0
 11
-637.63174939999999
 21
-778.44937000000004
 31
0.0
  0
ARC
  5
2AB
  8
DATA
  6
CONTINUOUS
 62
     7
 10
-626.45574940000006
 20
-789.62536999999986
 30
0.0
 40
1.523999999999887
 50
0.0
 51
90.0
  0
LINE
  5
2AC
  8
DATA
  6
CONTINUOUS
 62
     7
 10
-624.93174940000017
 20
-791.14936999999975
 30
0.0
 11
-624.93174940000017
 21
-789.62536999999986
 31
0.0
  0
CIRCLE
  5
2AD
  8
DATA
  6
CONTINUOUS
 62
     7
 10
-624.9000501999999
 20
-760.14153260000001
 30
0.0
 40
5.9999879999995764
  0
ARC
  5
2AE
  8
DATA
  6
CONTINUOUS
 62
     7
 10
-510.30000000000013
 20
-682.68682339999987
 30
0.0
 40
103.5869403999998
 50
164.79529400000001
 51
195.20470599999999
  0
ARC
  5
2AF
  8
DATA
  6
CONTINUOUS
 62
     7
 10
-510.30000000000013
 20
-682.68682339999987
 30
0.0
 40
103.5869403999998
 50
164.79529400000001
 51
195.20470599999999
  0
LINE
  5
2B0
  8
DATA
  6
CONTINUOUS
 62
     7
 10
-537.46758599999998
 20
-782.64771059999987
 30
0.0
 11
-590.9052236
 21
-768.12432079999985
 31
0.0
  0
ARC
  5
2B1
  8
DATA
  6
CONTINUOUS
 62
     7
 10
-589.10174740000002
 20
-761.48857079999982
 30
0.0
 40
6.8764404000000328
 50
195.20470599999891
 51
254.79529399999711
  0
LINE
  5
2B2
  8
DATA
  6
CONTINUOUS
 62
     7
 10
-628.32905019999987
 20
-760.14153260000001
 30
0.0
 11
-621.47105019999981
 21
-760.14153260000001
 31
0.0
  0
LINE
  5
2B3
  8
DATA
  6
CONTINUOUS
 62
     7
 10
-624.9000501999999
 20
-763.57053260000009
 30
0.0
 11
-624.9000501999999
 21
-756.71253260000015
 31
0.0
  0
ARC
  5
2B4
  8
DATA
  6
CONTINUOUS
 62
     7
 10
-541.85588678081444
 20
-649.64954599944258
 30
0.0
 40
31.916437465712239
 50
348.54141461805187
 51
25.13438930679451
  0
ARC
  5
2B5
  8
DATA
  6
CONTINUOUS
 62
     7
 10
-490.20306048619199
 20
-660.06913164411856
 30
0.0
 40
20.776882614234641
 50
168.67769905050679
 51
251.41726616380899
  0
ARC
  5
2B6
  8
DATA
  6
CONTINUOUS
 62
     7
 10
-471.48154637461272
 20
-621.33732618606996
 30
0.0
 40
63.685017251833422
 50
246.55079004985711
 51
267.39897302578828
  0
ARC
  5
2B7
  8
DATA
  6
CONTINUOUS
 62
     7
 10
-471.32102476655962
 20
-755.93098890879503
 30
0.0
 40
71.039786601390404
 50
69.521563955829919
 51
92.461163536995869
  0
ARC
  5
2B8
  8
DATA
  6
CONTINUOUS
 62
     7
 10
-602.76462998216948
 20
-625.74969190440675
 30
0.0
 40
9.4794661358954695
 50
292.09670450405252
 51
333.52709141821123
  0
ARC
  5
2B9
  8
DATA
  6
CONTINUOUS
 62
     7
 10
-510.30000000000013
 20
-682.68682339999987
 30
0.0
 40
36.000004199999857
 50
89.64539100000033
 51
356.38492999999971
  0
ARC
  5
2BA
  8
DATA
  6
CONTINUOUS
 62
     7
 10
-600.40405309544337
 20
-627.90243053044196
 30
0.0
 40
6.7391280543824728
 50
235.1219591766978
 51
280.30304233735342
  0
CIRCLE
  5
2BB
  8
DATA
  6
CONTINUOUS
 62
     7
 10
-624.9000501999999
 20
-609.47586999999987
 30
0.0
 40
5.9999879999995764
  0
CIRCLE
  5
2BC
  8
DATA
  6
CONTINUOUS
 62
     7
 10
-587.75470920000043
 20
-605.23211420000018
 30
0.0
 40
3.9999920000000202
  0
ARC
  5
2BD
  8
DATA
  6
CONTINUOUS
 62
     7
 10
-589.10174740000002
 20
-603.88507600000003
 30
0.0
 40
6.8764403999999324
 50
105.2047060000031
 51
164.7952939999989
  0
CIRCLE
  5
2BE
  8
DATA
  6
CONTINUOUS
 62
     7
 10
-624.9000501999999
 20
-458.81018200000022
 30
0.0
 40
5.9999879999995764
  0
ARC
  5
2BF
  8
DATA
  6
CONTINUOUS
 62
     7
 10
-636.4317772000004
 20
-425.0176156
 30
0.0
 40
3.1749999999999541
 50
90.0
 51
180.0
  0
ARC
  5
2C0
  8
DATA
  6
CONTINUOUS
 62
     7
 10
-646.82500000000016
 20
-421.61934960000031
 30
0.0
 40
3.175000000000181
 50
90.0
 51
180.0
  0
ARC
  5
2C1
  8
DATA
  6
CONTINUOUS
 62
     7
 10
-636.10774939999999
 20
-439.13353860000001
 30
0.0
 40
1.5240000000001139
 50
270.0
 51
0.0
  0
ARC
  5
2C2
  8
DATA
  6
CONTINUOUS
 62
     7
 10
-626.45574940000006
 20
-429.48153860000019
 30
0.0
 40
1.523999999999887
 50
270.0
 51
0.0
  0
ARC
  5
2C3
  8
DATA
  6
CONTINUOUS
 62
     7
 10
-633.82174940000004
 20
-431.76753860000008
 30
0.0
 40
0.7619999999999437
 50
90.0
 51
180.0
  0
LINE
  5
2C4
  8
DATA
  6
CONTINUOUS
 62
     7
 10
-634.5837494000001
 20
-431.76753860000008
 30
0.0
 11
-634.5837494000001
 21
-439.13353860000001
 31
0.0
  0
LINE
  5
2C5
  8
DATA
  6
CONTINUOUS
 62
     7
 10
-626.45574940000006
 20
-431.00553860000008
 30
0.0
 11
-633.82174940000004
 21
-431.00553860000008
 31
0.0
  0
LINE
  5
2C6
  8
DATA
  6
CONTINUOUS
 62
     7
 10
-624.93174940000017
 20
-427.95753860000008
 30
0.0
 11
-624.93174940000017
 21
-429.48153860000019
 31
0.0
  0
LINE
  5
2C7
  8
DATA
  6
CONTINUOUS
 62
     7
 10
-636.10774939999999
 20
-440.65753860000012
 30
0.0
 11
-637.63174939999999
 21
-440.65753860000012
 31
0.0
  0
LINE
  5
2C8
  8
DATA
  6
CONTINUOUS
 62
     7
 10
-573.80000000000018
 20
-443.0567210000001
 30
0.0
 11
-573.80000000000018
 21
-568.53272100000027
 31
0.0
  0
ARC
  5
2C9
  8
DATA
  6
CONTINUOUS
 62
     7
 10
-510.30000000000013
 20
-505.7947210000001
 30
0.0
 40
11.4299999999999
 50
282.45377700000012
 51
77.546222999999927
  0
ARC
  5
2CA
  8
DATA
  6
CONTINUOUS
 62
     7
 10
-593.28205400000013
 20
-516.33572100000015
 30
0.0
 40
11.810999999999691
 50
180.0
 51
0.0
  0
ARC
  5
2CB
  8
DATA
  6
CONTINUOUS
 62
     7
 10
-593.28205400000013
 20
-516.33572100000015
 30
0.0
 40
9.3980000000001382
 50
180.0
 51
0.0
  0
ARC
  5
2CC
  8
DATA
  6
CONTINUOUS
 62
     7
 10
-510.30000000000013
 20
-505.7947210000001
 30
0.0
 40
11.4299999999999
 50
102.4537770000001
 51
257.54622299999988
  0
LINE
  5
2CD
  8
DATA
  6
CONTINUOUS
 62
     7
 10
-507.8351078
 20
-490.34740620000019
 30
0.0
 11
-507.8351078
 21
-521.24201040000003
 31
0.0
  0
LINE
  5
2CE
  8
DATA
  6
CONTINUOUS
 62
     7
 10
-512.76489219999985
 20
-490.34740620000019
 30
0.0
 11
-512.76489219999985
 21
-521.24201040000003
 31
0.0
  0
LINE
  5
2CF
  8
DATA
  6
CONTINUOUS
 62
     7
 10
-528.07999999999993
 20
-481.029721
 30
0.0
 11
-528.07999999999993
 21
-530.55972100000008
 31
0.0
  0
ARC
  5
2D0
  8
DATA
  6
CONTINUOUS
 62
     7
 10
-573.03800000000047
 20
-568.53272100000027
 30
0.0
 40
0.7619999999997164
 50
180.0
 51
270.0
  0
ARC
  5
2D1
  8
DATA
  6
CONTINUOUS
 62
     7
 10
-526.55600000000049
 20
-530.55972100000008
 30
0.0
 40
1.523999999999887
 50
180.0
 51
270.0
  0
ARC
  5
2D2
  8
DATA
  6
CONTINUOUS
 62
     7
 10
-522.02821551346915
 20
-521.24202946484615
 30
0.0
 40
14.193107713481689
 50
350.21738254287573
 51
0.0000769623708834
  0
ARC
  5
2D3
  8
DATA
  6
CONTINUOUS
 62
     7
 10
-516.20389068097109
 20
-522.24628823653461
 30
0.0
 40
8.2828373785550742
 50
337.40069457480752
 51
350.21767436218278
  0
ARC
  5
2D4
  8
DATA
  6
CONTINUOUS
 62
     7
 10
-512.55066318637455
 20
-523.76690718943121
 30
0.0
 40
4.3257736784774643
 50
314.85944740796549
 51
337.40043874137001
  0
ARC
  5
2D5
  8
DATA
  6
CONTINUOUS
 62
     7
 10
-510.30000996256513
 20
-526.0286382965221
 30
0.0
 40
1.135026503521724
 50
270.00050290713278
 51
314.85975103336051
  0
ARC
  5
2D6
  8
DATA
  6
CONTINUOUS
 62
     7
 10
-510.29999003743512
 20
-526.0286382965221
 30
0.0
 40
1.1350265035215741
 50
225.1402489666396
 51
269.99949709286722
  0
ARC
  5
2D7
  8
DATA
  6
CONTINUOUS
 62
     7
 10
-508.04933681362633
 20
-523.76690718943121
 30
0.0
 40
4.3257736784771286
 50
202.59956125863189
 51
225.14055259203889
  0
ARC
  5
2D8
  8
DATA
  6
CONTINUOUS
 62
     7
 10
-504.39610931902911
 20
-522.24628823653461
 30
0.0
 40
8.2828373785549161
 50
189.78232563781739
 51
202.59930542519211
  0
ARC
  5
2D9
  8
DATA
  6
CONTINUOUS
 62
     7
 10
-498.57178448653121
 20
-521.24202946484615
 30
0.0
 40
14.19310771348189
 50
179.99992303762909
 51
189.7826174571241
  0
LINE
  5
2DA
  8
DATA
  6
CONTINUOUS
 62
     7
 10
-526.55600000000049
 20
-479.50572100000022
 30
0.0
 11
-494.04400000000032
 21
-479.50572100000022
 31
0.0
  0
ARC
  5
2DB
  8
DATA
  6
CONTINUOUS
 62
     7
 10
-593.28205400000013
 20
-495.25372099999998
 30
0.0
 40
11.81100000000014
 50
0.0
 51
180.0
  0
ARC
  5
2DC
  8
DATA
  6
CONTINUOUS
 62
     7
 10
-593.28205400000013
 20
-495.25372099999998
 30
0.0
 40
9.3980000000001382
 50
0.0
 51
180.0
  0
LINE
  5
2DD
  8
DATA
  6
CONTINUOUS
 62
     7
 10
-605.09305400000005
 20
-495.25372099999998
 30
0.0
 11
-605.09305400000005
 21
-516.33572100000015
 31
0.0
  0
LINE
  5
2DE
  8
DATA
  6
CONTINUOUS
 62
     7
 10
-602.68005400000027
 20
-495.25372099999998
 30
0.0
 11
-602.68005400000027
 21
-516.33572100000015
 31
0.0
  0
LINE
  5
2DF
  8
DATA
  6
CONTINUOUS
 62
     7
 10
-581.47105400000009
 20
-495.25372099999998
 30
0.0
 11
-581.47105400000009
 21
-516.33572100000015
 31
0.0
  0
LINE
  5
2E0
  8
DATA
  6
CONTINUOUS
 62
     7
 10
-583.88405400000011
 20
-495.25372099999998
 30
0.0
 11
-583.88405400000011
 21
-516.33572100000015
 31
0.0
  0
ARC
  5
2E1
  8
DATA
  6
CONTINUOUS
 62
     7
 10
-526.55600000000049
 20
-481.029721
 30
0.0
 40
1.523999999999887
 50
90.0
 51
180.0
  0
ARC
  5
2E2
  8
DATA
  6
CONTINUOUS
 62
     7
 10
-522.02821551346915
 20
-490.34738713515412
 30
0.0
 40
14.19310771348189
 50
359.99992303762917
 51
9.7826174571241609
  0
ARC
  5
2E3
  8
DATA
  6
CONTINUOUS
 62
     7
 10
-516.20389068097109
 20
-489.34312836346561
 30
0.0
 40
8.2828373785549161
 50
9.7823256378173404
 51
22.599305425192121
  0
ARC
  5
2E4
  8
DATA
  6
CONTINUOUS
 62
     7
 10
-512.55066318637455
 20
-487.8225094105689
 30
0.0
 40
4.3257736784776366
 50
22.59956125863231
 51
45.140552592034609
  0
ARC
  5
2E5
  8
DATA
  6
CONTINUOUS
 62
     7
 10
-510.30000996256513
 20
-485.56077830347812
 30
0.0
 40
1.1350265035215741
 50
45.140248966639589
 51
89.999497092867244
  0
ARC
  5
2E6
  8
DATA
  6
CONTINUOUS
 62
     7
 10
-510.29999003743512
 20
-485.56077830347812
 30
0.0
 40
1.135026503521724
 50
90.000502907132784
 51
134.8597510333604
  0
ARC
  5
2E7
  8
DATA
  6
CONTINUOUS
 62
     7
 10
-508.04933681362633
 20
-487.8225094105689
 30
0.0
 40
4.3257736784771428
 50
134.85944740796111
 51
157.40043874136481
  0
ARC
  5
2E8
  8
DATA
  6
CONTINUOUS
 62
     7
 10
-504.39610931902911
 20
-489.34312836346561
 30
0.0
 40
8.2828373785550742
 50
157.4006945748074
 51
170.21767436218281
  0
ARC
  5
2E9
  8
DATA
  6
CONTINUOUS
 62
     7
 10
-498.57178448653121
 20
-490.34738713515412
 30
0.0
 40
14.193107713481689
 50
170.2173825428757
 51
180.00007696237091
  0
ARC
  5
2EA
  8
DATA
  6
CONTINUOUS
 62
     7
 10
-494.04400000000032
 20
-481.029721
 30
0.0
 40
1.523999999999887
 50
0.0
 51
90.0
  0
ARC
  5
2EB
  8
DATA
  6
CONTINUOUS
 62
     7
 10
-573.03800000000047
 20
-443.0567210000001
 30
0.0
 40
0.7619999999997164
 50
90.0
 51
180.0
  0
ARC
  5
2EC
  8
DATA
  6
CONTINUOUS
 62
     7
 10
-447.56200000000041
 20
-443.0567210000001
 30
0.0
 40
0.7620000000001709
 50
0.0
 51
90.0
  0
LINE
  5
2ED
  8
DATA
  6
CONTINUOUS
 62
     7
 10
-447.56200000000041
 20
-442.29472099999998
 30
0.0
 11
-573.03800000000047
 21
-442.29472099999998
 31
0.0
  0
LINE
  5
2EE
  8
DATA
  6
CONTINUOUS
 62
     7
 10
-628.32905019999987
 20
-458.81018200000022
 30
0.0
 11
-621.47105019999981
 21
-458.81018200000022
 31
0.0
  0
LINE
  5
2EF
  8
DATA
  6
CONTINUOUS
 62
     7
 10
-624.9000501999999
 20
-462.2391820000002
 30
0.0
 11
-624.9000501999999
 21
-455.38118200000031
 31
0.0
  0
LINE
  5
2F0
  8
DATA
  6
CONTINUOUS
 62
     7
 10
-590.04070920000049
 20
-605.23211420000018
 30
0.0
 11
-585.46870920000038
 21
-605.23211420000018
 31
0.0
  0
LINE
  5
2F1
  8
DATA
  6
CONTINUOUS
 62
     7
 10
-587.75470920000043
 20
-607.5181141999999
 30
0.0
 11
-587.75470920000043
 21
-602.94611420000001
 31
0.0
  0
LINE
  5
2F2
  8
DATA
  6
CONTINUOUS
 62
     7
 10
-628.32905019999987
 20
-609.47586999999987
 30
0.0
 11
-621.47105019999981
 21
-609.47586999999987
 31
0.0
  0
LINE
  5
2F3
  8
DATA
  6
CONTINUOUS
 62
     7
 10
-624.9000501999999
 20
-612.90487000000019
 30
0.0
 11
-624.9000501999999
 21
-606.04687000000013
 31
0.0
  0
ARC
  5
2F4
  8
DATA
  6
CONTINUOUS
 62
     7
 10
-648.25949153404827
 20
-581.0866290481481
 30
0.0
 40
157.41281151294419
 50
39.976975344769713
 51
61.677211984572892
  0
ARC
  5
2F5
  8
DATA
  6
CONTINUOUS
 62
     7
 10
-393.36223489123267
 20
-542.52156665975838
 30
0.0
 40
78.616149785771455
 50
132.8225574465512
 51
153.1667312146206
  0
ARC
  5
2F6
  8
DATA
  6
CONTINUOUS
 62
     7
 10
-524.64931806623588
 20
-477.73296869849321
 30
0.0
 40
67.795253657731863
 50
316.89693325064439
 51
334.39227825475848
  0
ARC
  5
2F7
  8
DATA
  6
CONTINUOUS
 62
     7
 10
-492.03921448155961
 20
-505.39018820062711
 30
0.0
 40
25.17412433538448
 50
268.90567570146658
 51
312.1354409318489
  0
ARC
  5
2F8
  8
DATA
  6
CONTINUOUS
 62
     7
 10
-698.78051707011025
 20
2704.936225505237
 30
0.0
 40
3242.0637595139701
 50
273.19641134469259
 51
273.64762839709567
  0
ARC
  5
2F9
  8
DATA
  6
CONTINUOUS
 62
     7
 10
-537.77307110496304
 20
-599.84029149782305
 30
0.0
 40
8.7721215229101688
 50
144.08720316198759
 51
223.49701702916869
  0
ARC
  5
2FA
  8
DATA
  6
CONTINUOUS
 62
     7
 10
-438.9859516814322
 20
-499.46340961180891
 30
0.0
 40
149.60199098116931
 50
225.34241172928219
 51
234.59652679223291
  0
ARC
  5
2FB
  8
DATA
  6
CONTINUOUS
 62
     7
 10
-521.82816248380357
 20
-707.29380359701213
 30
0.0
 40
114.1512482894491
 50
110.2198432730822
 51
115.7344868740218
  0
ARC
  5
2FC
  8
DATA
  6
CONTINUOUS
 62
     7
 10
-566.73673117383157
 20
-612.32050935038365
 30
0.0
 40
9.1320844905803078
 50
120.65432565108139
 51
176.15221852896701
  0
ARC
  5
2FD
  8
DATA
  6
CONTINUOUS
 62
     7
 10
-586.1296315336707
 20
-611.40992710588785
 30
0.0
 40
10.28571188454853
 50
288.21471020109323
 51
358.3410925425826
  0
LINE
  5
2FE
  8
DATA
  6
CONTINUOUS
 62
     7
 10
-446.80000000000013
 20
-484.85958380000039
 30
0.0
 11
-446.80000000000013
 21
-443.0567210000001
 31
0.0
  0
LINE
  5
2FF
  8
DATA
  6
CONTINUOUS
 62
     7
 10
-492.52000000000049
 20
-530.55972099999883
 30
0.0
 11
-492.52000000000049
 21
-481.029721
 31
0.0
  0
LINE
  5
300
  8
DATA
  6
CONTINUOUS
 62
     7
 10
-526.55600000000049
 20
-532.08372099999985
 30
0.0
 11
-518.0063854000008
 21
-532.08372099999985
 31
0.0
  0
ARC
  5
301
  8
DATA
  6
CONTINUOUS
 62
     7
 10
-514.16792441824873
 20
-564.05508194982656
 30
0.0
 40
32.200958117617212
 50
96.846125917371594
 51
140.661207206179
  0
ARC
  5
302
  8
DATA
  6
CONTINUOUS
 62
     7
 10
-526.27050691180091
 20
-557.29432271759538
 30
0.0
 40
18.715148119967331
 50
133.16052907392719
 51
219.88233745677121
  0
ARC
  5
303
  8
DATA
  6
CONTINUOUS
 62
     7
 10
-556.50869436177982
 20
-580.12345925843385
 30
0.0
 40
19.21813794525653
 50
352.21714671211112
 51
34.295730423472087
  0
ARC
  5
304
  8
DATA
  6
CONTINUOUS
 62
     7
 10
-586.36482559561091
 20
-560.73159866587605
 30
0.0
 40
53.616154663950041
 50
320.69457336661191
 51
335.78141005090151
  0
LINE
  5
305
  8
DATA
  6
CONTINUOUS
 62
     7
 10
-573.03800000000047
 20
-569.29472099999987
 30
0.0
 11
-540.63181640000494
 21
-569.29472099999987
 31
0.0
  0
LINE
  5
306
  8
DATA
  6
CONTINUOUS
 62
     7
 10
-590.9052236
 20
-597.24935139999991
 30
0.0
 11
-537.46758516544787
 21
-582.72595549402729
 31
0.0
  0
ARC
  5
307
  8
DATA
  6
CONTINUOUS
 62
     7
 10
-565.1765188628782
 20
-591.46889241158215
 30
0.0
 40
9.5398039122519815
 50
294.09765338198372
 51
22.24768501774161
  0
ARC
  5
308
  8
DATA
  6
CONTINUOUS
 62
     7
 10
-372.34050846595221
 20
-581.0866290481481
 30
0.0
 40
157.4128115129441
 50
118.32278801542709
 51
140.0230246552303
  0
ARC
  5
309
  8
DATA
  6
CONTINUOUS
 62
     7
 10
-648.25949153404827
 20
-430.50281295185198
 30
0.0
 40
157.4128115129441
 50
298.32278801542719
 51
313.0005983461117
  0
ARC
  5
30A
  8
DATA
  6
CONTINUOUS
 62
     7
 10
-648.25949153404827
 20
-430.50281295185198
 30
0.0
 40
157.4128115129443
 50
316.71076480145013
 51
320.02302465523019
  0
LINE
  5
30B
  8
DATA
  6
CONTINUOUS
 62
     7
 10
-526.30250000000012
 20
-581.44434960000012
 30
0.0
 11
-526.30250000000012
 21
-549.44434960000012
 31
0.0
  0
LINE
  5
30C
  8
DATA
  6
CONTINUOUS
 62
     7
 10
-526.30250000000012
 20
-549.44434960000012
 30
0.0
 11
-494.30249999999972
 21
-549.44434960000012
 31
0.0
  0
LINE
  5
30D
  8
DATA
  6
CONTINUOUS
 62
     7
 10
-494.30249999999972
 20
-549.44434960000012
 30
0.0
 11
-494.30249999999972
 21
-581.44434960000012
 31
0.0
  0
LINE
  5
30E
  8
DATA
  6
CONTINUOUS
 62
     7
 10
-494.30249999999972
 20
-581.44434960000012
 30
0.0
 11
-526.30250000000012
 21
-581.44434960000012
 31
0.0
  0
LINE
  5
30F
  8
DATA
  6
CONTINUOUS
 62
     7
 10
-526.30250000000012
 20
-554.94434960000012
 30
0.0
 11
-494.30249999999972
 21
-554.94434960000012
 31
0.0
  0
LINE
  5
310
  8
DATA
  6
CONTINUOUS
 62
     7
 10
-518.085710331325
 20
-566.51999535662503
 30
0.0
 11
-516.44179889237512
 21
-562.6030211872752
 31
0.0
  0
LINE
  5
311
  8
DATA
  6
CONTINUOUS
 62
     7
 10
-518.085710331325
 20
-566.51999535662503
 30
0.0
 11
-519.70932656732521
 21
-562.6030211872752
 31
0.0
  0
LINE
  5
312
  8
DATA
  6
CONTINUOUS
 62
     7
 10
-505.6244557200252
 20
-573.60302118617506
 30
0.0
 11
-505.6244557200252
 21
-562.6030211872752
 31
0.0
  0
LINE
  5
313
  8
DATA
  6
CONTINUOUS
 62
     7
 10
-503.5137546132251
 20
-562.6030211872752
 30
0.0
 11
-503.5137546132251
 21
-571.91851934132501
 31
0.0
  0
LINE
  5
314
  8
DATA
  6
CONTINUOUS
 62
     7
 10
-515.67058118027489
 20
-562.6030211872752
 30
0.0
 11
-515.67058118027489
 21
-571.91851934132501
 31
0.0
  0
LINE
  5
315
  8
DATA
  6
CONTINUOUS
 62
     7
 10
-513.64106088527524
 20
-562.6030211872752
 30
0.0
 11
-513.64106088527524
 21
-571.91851934132501
 31
0.0
  0
LINE
  5
316
  8
DATA
  6
CONTINUOUS
 62
     7
 10
-512.58571033187479
 20
-562.6030211872752
 30
0.0
 11
-512.58571033187479
 21
-573.60302118617506
 31
0.0
  0
LINE
  5
317
  8
DATA
  6
CONTINUOUS
 62
     7
 10
-510.73884686342529
 20
-563.63807653772494
 30
0.0
 11
-510.73884686342529
 21
-567.16944185102489
 31
0.0
  0
LINE
  5
318
  8
DATA
  6
CONTINUOUS
 62
     7
 10
-506.78128228817508
 20
-566.96648982152476
 30
0.0
 11
-506.78128228817508
 21
-564.36870384392489
 31
0.0
  0
LINE
  5
319
  8
DATA
  6
CONTINUOUS
 62
     7
 10
-508.72962177137521
 20
-564.12516140852529
 30
0.0
 11
-508.72962177137521
 21
-566.64176657432517
 31
0.0
  0
ARC
  5
31A
  8
DATA
  6
CONTINUOUS
 62
     7
 10
-516.07784298835247
 20
-570.77845052225098
 30
0.0
 40
2.8367396676128118
 50
264.69092199999898
 51
323.99125800000257
  0
LINE
  5
31B
  8
DATA
  6
CONTINUOUS
 62
     7
 10
-517.21301660447546
 20
-570.15283668467498
 30
0.0
 11
-517.21301660447546
 21
-571.91851934132501
 31
0.0
  0
LINE
  5
31C
  8
DATA
  6
CONTINUOUS
 62
     7
 10
-517.21301660447546
 20
-570.15283668467498
 30
0.0
 11
-519.03958486997533
 21
-570.15283668467498
 31
0.0
  0
LINE
  5
31D
  8
DATA
  6
CONTINUOUS
 62
     7
 10
-519.03958486997533
 20
-570.15283668467498
 30
0.0
 11
-519.03958486997533
 21
-571.91851934132501
 31
0.0
  0
ARC
  5
31E
  8
DATA
  6
CONTINUOUS
 62
     7
 10
-516.43793671525373
 20
-571.9423174963041
 30
0.0
 40
0.7677249076723238
 50
269.71181399998562
 51
1.7763040000108381
  0
ARC
  5
31F
  8
DATA
  6
CONTINUOUS
 62
     7
 10
-516.44566106949651
 20
-571.9423174963041
 30
0.0
 40
0.767724907672061
 50
178.22369599998871
 51
270.28818600001449
  0
ARC
  5
320
  8
DATA
  6
CONTINUOUS
 62
     7
 10
-516.60280276689798
 20
-570.77845052225098
 30
0.0
 40
2.836739667612719
 50
216.008742000002
 51
275.30907800000119
  0
ARC
  5
321
  8
DATA
  6
CONTINUOUS
 62
     7
 10
-517.7576038737933
 20
-571.85633280996592
 30
0.0
 40
1.283486900240391
 50
182.77713899999949
 51
207.35983699999491
  0
CIRCLE
  5
322
  8
DATA
  6
CONTINUOUS
 62
     7
 10
-517.97408671510038
 20
-568.04213557787511
 30
0.0
 40
1.045202951925148
  0
LINE
  5
323
  8
DATA
  6
CONTINUOUS
 62
     7
 10
-500.12445572057499
 20
-573.60302118617506
 30
0.0
 11
-505.6244557200252
 21
-573.60302118617506
 31
0.0
  0
LINE
  5
324
  8
DATA
  6
CONTINUOUS
 62
     7
 10
-500.12445572057499
 20
-573.60302118617506
 30
0.0
 11
-500.12445572057499
 21
-570.15283668467498
 31
0.0
  0
LINE
  5
325
  8
DATA
  6
CONTINUOUS
 62
     7
 10
-500.12445572057499
 20
-570.15283668467498
 30
0.0
 11
-501.971319189025
 21
-570.15283668467498
 31
0.0
  0
LINE
  5
326
  8
DATA
  6
CONTINUOUS
 62
     7
 10
-501.971319189025
 20
-570.15283668467498
 30
0.0
 11
-501.971319189025
 21
-571.91851934132501
 31
0.0
  0
LINE
  5
327
  8
DATA
  6
CONTINUOUS
 62
     7
 10
-512.58571033187479
 20
-573.60302118617506
 30
0.0
 11
-508.70932656842518
 21
-573.60302118617506
 31
0.0
  0
LINE
  5
328
  8
DATA
  6
CONTINUOUS
 62
     7
 10
-510.73884686342529
 20
-572.56796583572498
 30
0.0
 11
-509.74438191887481
 21
-572.56796583572498
 31
0.0
  0
LINE
  5
329
  8
DATA
  6
CONTINUOUS
 62
     7
 10
-510.73884686342529
 20
-572.56796583572498
 30
0.0
 11
-510.73884686342529
 21
-568.22479240442533
 31
0.0
  0
LINE
  5
32A
  8
DATA
  6
CONTINUOUS
 62
     7
 10
-510.73884686342529
 20
-568.22479240442533
 30
0.0
 11
-509.74438191887481
 21
-568.22479240442533
 31
0.0
  0
LINE
  5
32B
  8
DATA
  6
CONTINUOUS
 62
     7
 10
-508.72962177137521
 20
-572.08088096492486
 30
0.0
 11
-508.72962177137521
 21
-568.75246768112493
 31
0.0
  0
ARC
  5
32C
  8
DATA
  6
CONTINUOUS
 62
     7
 10
-514.92304188145681
 20
-571.85633280996592
 30
0.0
 40
1.283486900240582
 50
332.64016300000287
 51
357.22286100000099
  0
ARC
  5
32D
  8
DATA
  6
CONTINUOUS
 62
     7
 10
-502.73867472400337
 20
-571.9423174963041
 30
0.0
 40
0.7677249076723238
 50
269.71181399998562
 51
1.7763040000108381
  0
ARC
  5
32E
  8
DATA
  6
CONTINUOUS
 62
     7
 10
-502.7463990782465
 20
-571.9423174963041
 30
0.0
 40
0.767724907672061
 50
178.22369599998871
 51
270.28818600001449
  0
LINE
  5
32F
  8
DATA
  6
CONTINUOUS
 62
     7
 10
-506.78128228817508
 20
-571.83733852952469
 30
0.0
 11
-506.78128228817508
 21
-568.95541971062528
 31
0.0
  0
LINE
  5
330
  8
DATA
  6
CONTINUOUS
 62
     7
 10
-510.73884686342529
 20
-567.16944185102489
 30
0.0
 11
-509.74438191887481
 21
-567.16944185102489
 31
0.0
  0
ARC
  5
331
  8
DATA
  6
CONTINUOUS
 62
     7
 10
-507.86603450208889
 20
-568.98678594678427
 30
0.0
 40
1.0668863467570331
 50
3.8672740000072112
 51
88.36168999999893
  0
ARC
  5
332
  8
DATA
  6
CONTINUOUS
 62
     7
 10
-507.8670167899117
 20
-566.85286103924864
 30
0.0
 40
1.0679396677899859
 50
271.68941600002103
 51
356.07833300000181
  0
ARC
  5
333
  8
DATA
  6
CONTINUOUS
 62
     7
 10
-508.8694577492206
 20
-571.51481731184526
 30
0.0
 40
2.0928819186098622
 50
273.83108899999331
 51
351.13515900000169
  0
POLYLINE
  5
334
  8
DATA
  6
CONTINUOUS
 62
     7
 66
     1
 10
0.0
 20
0.0
 30
0.0
 70
   128
  0
VERTEX
  5
76C
  8
DATA
  6
CONTINUOUS
 62
     7
 10
-509.74438191887481
 20
-567.169441851025
 30
0.0
  0
VERTEX
  5
76D
  8
DATA
  6
CONTINUOUS
 62
     7
 10
-509.72729754369271
 20
-567.169441851025
 30
0.0
  0
VERTEX
  5
76E
  8
DATA
  6
CONTINUOUS
 62
     7
 10
-509.70555694278568
 20
-567.16897410598369
 30
0.0
  0
VERTEX
  5
76F
  8
DATA
  6
CONTINUOUS
 62
     7
 10
-509.68370931206562
 20
-567.16829860292955
 30
0.0
  0
VERTEX
  5
770
  8
DATA
  6
CONTINUOUS
 62
     7
 10
-509.66175465153287
 20
-567.16741534186303
 30
0.0
  0
VERTEX
  5
771
  8
DATA
  6
CONTINUOUS
 62
     7
 10
-509.63969296118722
 20
-567.16632432278391
 30
0.0
  0
VERTEX
  5
772
  8
DATA
  6
CONTINUOUS
 62
     7
 10
-509.61752424102832
 20
-567.16502554569206
 30
0.0
  0
VERTEX
  5
773
  8
DATA
  6
CONTINUOUS
 62
     7
 10
-509.59524849105679
 20
-567.16351901058795
 30
0.0
  0
VERTEX
  5
774
  8
DATA
  6
CONTINUOUS
 62
     7
 10
-509.57286571127202
 20
-567.161804717471
 30
0.0
  0
VERTEX
  5
775
  8
DATA
  6
CONTINUOUS
 62
     7
 10
-509.55037590167427
 20
-567.15988266634179
 30
0.0
  0
VERTEX
  5
776
  8
DATA
  6
CONTINUOUS
 62
     7
 10
-509.52784678666529
 20
-567.15768163891562
 30
0.0
  0
VERTEX
  5
777
  8
DATA
  6
CONTINUOUS
 62
     7
 10
-509.50534609064619
 20
-567.15513041690838
 30
0.0
  0
VERTEX
  5
778
  8
DATA
  6
CONTINUOUS
 62
     7
 10
-509.48287381361712
 20
-567.15222900032029
 30
0.0
  0
VERTEX
  5
779
  8
DATA
  6
CONTINUOUS
 62
     7
 10
-509.46042995557781
 20
-567.14897738915101
 30
0.0
  0
VERTEX
  5
77A
  8
DATA
  6
CONTINUOUS
 62
     7
 10
-509.43801451652871
 20
-567.14537558340066
 30
0.0
  0
VERTEX
  5
77B
  8
DATA
  6
CONTINUOUS
 62
     7
 10
-509.41562749646931
 20
-567.14142358306947
 30
0.0
  0
VERTEX
  5
77C
  8
DATA
  6
CONTINUOUS
 62
     7
 10
-509.39326889540013
 20
-567.13712138815686
 30
0.0
  0
VERTEX
  5
77D
  8
DATA
  6
CONTINUOUS
 62
     7
 10
-509.37093871332081
 20
-567.13246899866385
 30
0.0
  0
VERTEX
  5
77E
  8
DATA
  6
CONTINUOUS
 62
     7
 10
-509.34896202252298
 20
-567.12760737349993
 30
0.0
  0
VERTEX
  5
77F
  8
DATA
  6
CONTINUOUS
 62
     7
 10
-509.32766389529797
 20
-567.12267747157546
 30
0.0
  0
VERTEX
  5
780
  8
DATA
  6
CONTINUOUS
 62
     7
 10
-509.3070443316459
 20
-567.1176792928909
 30
0.0
  0
VERTEX
  5
781
  8
DATA
  6
CONTINUOUS
 62
     7
 10
-509.2871033315671
 20
-567.11261283744591
 30
0.0
  0
VERTEX
  5
782
  8
DATA
  6
CONTINUOUS
 62
     7
 10
-509.267840895061
 20
-567.10747810524049
 30
0.0
  0
VERTEX
  5
783
  8
DATA
  6
CONTINUOUS
 62
     7
 10
-509.24925702212789
 20
-567.10227509627487
 30
0.0
  0
VERTEX
  5
784
  8
DATA
  6
CONTINUOUS
 62
     7
 10
-509.23135171276772
 20
-567.09700381054904
 30
0.0
  0
VERTEX
  5
785
  8
DATA
  6
CONTINUOUS
 62
     7
 10
-509.21412496698048
 20
-567.09166424806267
 30
0.0
  0
VERTEX
  5
786
  8
DATA
  6
CONTINUOUS
 62
     7
 10
-509.19685351397408
 20
-567.08598674643508
 30
0.0
  0
VERTEX
  5
787
  8
DATA
  6
CONTINUOUS
 62
     7
 10
-509.17881408295648
 20
-567.07970164328447
 30
0.0
  0
VERTEX
  5
788
  8
DATA
  6
CONTINUOUS
 62
     7
 10
-509.1600066739278
 20
-567.0728089386115
 30
0.0
  0
VERTEX
  5
789
  8
DATA
  6
CONTINUOUS
 62
     7
 10
-509.14043128688752
 20
-567.06530863241585
 30
0.0
  0
VERTEX
  5
78A
  8
DATA
  6
CONTINUOUS
 62
     7
 10
-509.1200879218361
 20
-567.05720072469751
 30
0.0
  0
VERTEX
  5
78B
  8
DATA
  6
CONTINUOUS
 62
     7
 10
-509.0989765787736
 20
-567.04848521545637
 30
0.0
  0
VERTEX
  5
78C
  8
DATA
  6
CONTINUOUS
 62
     7
 10
-509.0770972576999
 20
-567.03916210469276
 30
0.0
  0
VERTEX
  5
78D
  8
DATA
  6
CONTINUOUS
 62
     7
 10
-509.05444995861473
 20
-567.02923139240625
 30
0.0
  0
VERTEX
  5
78E
  8
DATA
  6
CONTINUOUS
 62
     7
 10
-509.03156214181269
 20
-567.01852696414494
 30
0.0
  0
VERTEX
  5
78F
  8
DATA
  6
CONTINUOUS
 62
     7
 10
-509.00896126758852
 20
-567.00688270545641
 30
0.0
  0
VERTEX
  5
790
  8
DATA
  6
CONTINUOUS
 62
     7
 10
-508.98664733594211
 20
-566.99429861634042
 30
0.0
  0
VERTEX
  5
791
  8
DATA
  6
CONTINUOUS
 62
     7
 10
-508.9646203468734
 20
-566.98077469679754
 30
0.0
  0
VERTEX
  5
792
  8
DATA
  6
CONTINUOUS
 62
     7
 10
-508.94288030038251
 20
-566.96631094682687
 30
0.0
  0
VERTEX
  5
793
  8
DATA
  6
CONTINUOUS
 62
     7
 10
-508.92142719646949
 20
-566.95090736642919
 30
0.0
  0
VERTEX
  5
794
  8
DATA
  6
CONTINUOUS
 62
     7
 10
-508.90026103513389
 20
-566.93456395560418
 30
0.0
  0
VERTEX
  5
795
  8
DATA
  6
CONTINUOUS
 62
     7
 10
-508.87938181637628
 20
-566.91728071435205
 30
0.0
  0
VERTEX
  5
796
  8
DATA
  6
CONTINUOUS
 62
     7
 10
-508.8594502841608
 20
-566.89960264633771
 30
0.0
  0
VERTEX
  5
797
  8
DATA
  6
CONTINUOUS
 62
     7
 10
-508.8411271824516
 20
-566.88207475522574
 30
0.0
  0
VERTEX
  5
798
  8
DATA
  6
CONTINUOUS
 62
     7
 10
-508.82441251124879
 20
-566.8646970410166
 30
0.0
  0
VERTEX
  5
799
  8
DATA
  6
CONTINUOUS
 62
     7
 10
-508.80930627055272
 20
-566.84746950371004
 30
0.0
  0
VERTEX
  5
79A
  8
DATA
  6
CONTINUOUS
 62
     7
 10
-508.79580846036322
 20
-566.83039214330631
 30
0.0
  0
VERTEX
  5
79B
  8
DATA
  6
CONTINUOUS
 62
     7
 10
-508.78391908067988
 20
-566.81346495980495
 30
0.0
  0
VERTEX
  5
79C
  8
DATA
  6
CONTINUOUS
 62
     7
 10
-508.77363813150322
 20
-566.79668795320629
 30
0.0
  0
VERTEX
  5
79D
  8
DATA
  6
CONTINUOUS
 62
     7
 10
-508.76496561283273
 20
-566.78006112351045
 30
0.0
  0
VERTEX
  5
79E
  8
DATA
  6
CONTINUOUS
 62
     7
 10
-508.75752859983783
 20
-566.76355630868818
 30
0.0
  0
VERTEX
  5
79F
  8
DATA
  6
CONTINUOUS
 62
     7
 10
-508.75095416768721
 20
-566.74714534671079
 30
0.0
  0
VERTEX
  5
7A0
  8
DATA
  6
CONTINUOUS
 62
     7
 10
-508.74524231638088
 20
-566.73082823757807
 30
0.0
  0
VERTEX
  5
7A1
  8
DATA
  6
CONTINUOUS
 62
     7
 10
-508.74039304591889
 20
-566.71460498128999
 30
0.0
  0
VERTEX
  5
7A2
  8
DATA
  6
CONTINUOUS
 62
     7
 10
-508.73640635630107
 20
-566.69847557784647
 30
0.0
  0
VERTEX
  5
7A3
  8
DATA
  6
CONTINUOUS
 62
     7
 10
-508.73328224752771
 20
-566.68244002724782
 30
0.0
  0
VERTEX
  5
7A4
  8
DATA
  6
CONTINUOUS
 62
     7
 10
-508.7310207195984
 20
-566.66649832949361
 30
0.0
  0
VERTEX
  5
7A5
  8
DATA
  6
CONTINUOUS
 62
     7
 10
-508.72962177251333
 20
-566.6506504845845
 30
0.0
  0
VERTEX
  5
7A6
  8
DATA
  6
CONTINUOUS
 62
     7
 10
-508.72962177251333
 20
-566.6506504845845
 30
0.0
  0
VERTEX
  5
7A7
  8
DATA
  6
CONTINUOUS
 62
     7
 10
-508.72962177137521
 20
-566.64176660948954
 30
0.0
  0
SEQEND
  5
7A8
  8
DATA
  6
CONTINUOUS
 62
     7
  0
POLYLINE
  5
372
  8
DATA
  6
CONTINUOUS
 62
     7
 66
     1
 10
0.0
 20
0.0
 30
0.0
 70
   128
  0
VERTEX
  5
7A9
  8
DATA
  6
CONTINUOUS
 62
     7
 10
-508.72962177137521
 20
-568.75246771628906
 30
0.0
  0
VERTEX
  5
7AA
  8
DATA
  6
CONTINUOUS
 62
     7
 10
-508.72962177075891
 20
-568.74765979738004
 30
0.0
  0
VERTEX
  5
7AB
  8
DATA
  6
CONTINUOUS
 62
     7
 10
-508.73079967922217
 20
-568.72940399078072
 30
0.0
  0
VERTEX
  5
7AC
  8
DATA
  6
CONTINUOUS
 62
     7
 10
-508.73315675767282
 20
-568.71115923222396
 30
0.0
  0
VERTEX
  5
7AD
  8
DATA
  6
CONTINUOUS
 62
     7
 10
-508.73669300611078
 20
-568.69292552170987
 30
0.0
  0
VERTEX
  5
7AE
  8
DATA
  6
CONTINUOUS
 62
     7
 10
-508.74140842453602
 20
-568.67470285923787
 30
0.0
  0
VERTEX
  5
7AF
  8
DATA
  6
CONTINUOUS
 62
     7
 10
-508.74730301294869
 20
-568.65649124480865
 30
0.0
  0
VERTEX
  5
7B0
  8
DATA
  6
CONTINUOUS
 62
     7
 10
-508.75437677134869
 20
-568.63829067842175
 30
0.0
  0
VERTEX
  5
7B1
  8
DATA
  6
CONTINUOUS
 62
     7
 10
-508.76262969973601
 20
-568.6201011600773
 30
0.0
  0
VERTEX
  5
7B2
  8
DATA
  6
CONTINUOUS
 62
     7
 10
-508.7720617981106
 20
-568.60192268977517
 30
0.0
  0
VERTEX
  5
7B3
  8
DATA
  6
CONTINUOUS
 62
     7
 10
-508.78318635021111
 20
-568.58351997314765
 30
0.0
  0
VERTEX
  5
7B4
  8
DATA
  6
CONTINUOUS
 62
     7
 10
-508.79651663977569
 20
-568.56465771582748
 30
0.0
  0
VERTEX
  5
7B5
  8
DATA
  6
CONTINUOUS
 62
     7
 10
-508.81205266680468
 20
-568.5453359178141
 30
0.0
  0
VERTEX
  5
7B6
  8
DATA
  6
CONTINUOUS
 62
     7
 10
-508.82979443129801
 20
-568.52555457910785
 30
0.0
  0
VERTEX
  5
7B7
  8
DATA
  6
CONTINUOUS
 62
     7
 10
-508.8497419332557
 20
-568.50531369970838
 30
0.0
  0
VERTEX
  5
7B8
  8
DATA
  6
CONTINUOUS
 62
     7
 10
-508.87189517267763
 20
-568.48461327961616
 30
0.0
  0
VERTEX
  5
7B9
  8
DATA
  6
CONTINUOUS
 62
     7
 10
-508.89625414956379
 20
-568.46345331883083
 30
0.0
  0
VERTEX
  5
7BA
  8
DATA
  6
CONTINUOUS
 62
     7
 10
-508.92281886391442
 20
-568.44183381735263
 30
0.0
  0
VERTEX
  5
7BB
  8
DATA
  6
CONTINUOUS
 62
     7
 10
-508.95099270104839
 20
-568.42070277065113
 30
0.0
  0
VERTEX
  5
7BC
  8
DATA
  6
CONTINUOUS
 62
     7
 10
-508.980179046285
 20
-568.40100817419614
 30
0.0
  0
VERTEX
  5
7BD
  8
DATA
  6
CONTINUOUS
 62
     7
 10
-509.01037789962419
 20
-568.38275002798775
 30
0.0
  0
VERTEX
  5
7BE
  8
DATA
  6
CONTINUOUS
 62
     7
 10
-509.04158926106612
 20
-568.3659283320261
 30
0.0
  0
VERTEX
  5
7BF
  8
DATA
  6
CONTINUOUS
 62
     7
 10
-509.07381313061052
 20
-568.35054308631095
 30
0.0
  0
VERTEX
  5
7C0
  8
DATA
  6
CONTINUOUS
 62
     7
 10
-509.10704950825738
 20
-568.33659429084241
 30
0.0
  0
VERTEX
  5
7C1
  8
DATA
  6
CONTINUOUS
 62
     7
 10
-509.14129839400692
 20
-568.32408194562038
 30
0.0
  0
VERTEX
  5
7C2
  8
DATA
  6
CONTINUOUS
 62
     7
 10
-509.17655978785899
 20
-568.31300605064484
 30
0.0
  0
VERTEX
  5
7C3
  8
DATA
  6
CONTINUOUS
 62
     7
 10
-509.21122149062478
 20
-568.30307830123877
 30
0.0
  0
VERTEX
  5
7C4
  8
DATA
  6
CONTINUOUS
 62
     7
 10
-509.24367130311509
 20
-568.29401039272523
 30
0.0
  0
VERTEX
  5
7C5
  8
DATA
  6
CONTINUOUS
 62
     7
 10
-509.27390922533021
 20
-568.28580232510387
 30
0.0
  0
VERTEX
  5
7C6
  8
DATA
  6
CONTINUOUS
 62
     7
 10
-509.3019352572698
 20
-568.27845409837482
 30
0.0
  0
VERTEX
  5
7C7
  8
DATA
  6
CONTINUOUS
 62
     7
 10
-509.32774939893397
 20
-568.27196571253819
 30
0.0
  0
VERTEX
  5
7C8
  8
DATA
  6
CONTINUOUS
 62
     7
 10
-509.3513516503229
 20
-568.26633716759363
 30
0.0
  0
VERTEX
  5
7C9
  8
DATA
  6
CONTINUOUS
 62
     7
 10
-509.37274201143612
 20
-568.26156846354149
 30
0.0
  0
VERTEX
  5
7CA
  8
DATA
  6
CONTINUOUS
 62
     7
 10
-509.39192048227397
 20
-568.25765960038166
 30
0.0
  0
VERTEX
  5
7CB
  8
DATA
  6
CONTINUOUS
 62
     7
 10
-509.41018045329531
 20
-568.25425732852852
 30
0.0
  0
VERTEX
  5
7CC
  8
DATA
  6
CONTINUOUS
 62
     7
 10
-509.42881531495829
 20
-568.25100839839695
 30
0.0
  0
VERTEX
  5
7CD
  8
DATA
  6
CONTINUOUS
 62
     7
 10
-509.44782506726278
 20
-568.2479128099867
 30
0.0
  0
VERTEX
  5
7CE
  8
DATA
  6
CONTINUOUS
 62
     7
 10
-509.4672097102092
 20
-568.24497056329824
 30
0.0
  0
VERTEX
  5
7CF
  8
DATA
  6
CONTINUOUS
 62
     7
 10
-509.48696924379749
 20
-568.24218165833099
 30
0.0
  0
VERTEX
  5
7D0
  8
DATA
  6
CONTINUOUS
 62
     7
 10
-509.5071036680273
 20
-568.23954609508553
 30
0.0
  0
VERTEX
  5
7D1
  8
DATA
  6
CONTINUOUS
 62
     7
 10
-509.52761298289909
 20
-568.23706387356117
 30
0.0
  0
VERTEX
  5
7D2
  8
DATA
  6
CONTINUOUS
 62
     7
 10
-509.54849718841251
 20
-568.23473499375837
 30
0.0
  0
VERTEX
  5
7D3
  8
DATA
  6
CONTINUOUS
 62
     7
 10
-509.56985111308882
 20
-568.2326089579758
 30
0.0
  0
VERTEX
  5
7D4
  8
DATA
  6
CONTINUOUS
 62
     7
 10
-509.59176958544879
 20
-568.23073526851215
 30
0.0
  0
VERTEX
  5
7D5
  8
DATA
  6
CONTINUOUS
 62
     7
 10
-509.61425260549311
 20
-568.22911392536719
 30
0.0
  0
VERTEX
  5
7D6
  8
DATA
  6
CONTINUOUS
 62
     7
 10
-509.63730017322121
 20
-568.22774492854114
 30
0.0
  0
VERTEX
  5
7D7
  8
DATA
  6
CONTINUOUS
 62
     7
 10
-509.6609122886332
 20
-568.22662827803379
 30
0.0
  0
VERTEX
  5
7D8
  8
DATA
  6
CONTINUOUS
 62
     7
 10
-509.68508895172903
 20
-568.22576397384546
 30
0.0
  0
VERTEX
  5
7D9
  8
DATA
  6
CONTINUOUS
 62
     7
 10
-509.70983016250909
 20
-568.22515201597582
 30
0.0
  0
VERTEX
  5
7DA
  8
DATA
  6
CONTINUOUS
 62
     7
 10
-509.73513592097288
 20
-568.22479240442499
 30
0.0
  0
VERTEX
  5
7DB
  8
DATA
  6
CONTINUOUS
 62
     7
 10
-509.73513592097288
 20
-568.22479240442499
 30
0.0
  0
VERTEX
  5
7DC
  8
DATA
  6
CONTINUOUS
 62
     7
 10
-509.74438191887481
 20
-568.22479240442499
 30
0.0
  0
SEQEND
  5
7DD
  8
DATA
  6
CONTINUOUS
 62
     7
  0
POLYLINE
  5
3A8
  8
DATA
  6
CONTINUOUS
 62
     7
 66
     1
 10
0.0
 20
0.0
 30
0.0
 70
   128
  0
VERTEX
  5
7DE
  8
DATA
  6
CONTINUOUS
 62
     7
 10
-509.74438191887481
 20
-572.56796583572498
 30
0.0
  0
VERTEX
  5
7DF
  8
DATA
  6
CONTINUOUS
 62
     7
 10
-509.72729754369271
 20
-572.56796583572498
 30
0.0
  0
VERTEX
  5
7E0
  8
DATA
  6
CONTINUOUS
 62
     7
 10
-509.68867005748382
 20
-572.56720697425897
 30
0.0
  0
VERTEX
  5
7E1
  8
DATA
  6
CONTINUOUS
 62
     7
 10
-509.65157078010401
 20
-572.56597976656963
 30
0.0
  0
VERTEX
  5
7E2
  8
DATA
  6
CONTINUOUS
 62
     7
 10
-509.61599971155312
 20
-572.56428421265673
 30
0.0
  0
VERTEX
  5
7E3
  8
DATA
  6
CONTINUOUS
 62
     7
 10
-509.58195685183142
 20
-572.56212031252005
 30
0.0
  0
VERTEX
  5
7E4
  8
DATA
  6
CONTINUOUS
 62
     7
 10
-509.5494422009387
 20
-572.55948806616016
 30
0.0
  0
VERTEX
  5
7E5
  8
DATA
  6
CONTINUOUS
 62
     7
 10
-509.51845575887512
 20
-572.55638747357636
 30
0.0
  0
VERTEX
  5
7E6
  8
DATA
  6
CONTINUOUS
 62
     7
 10
-509.48899752564051
 20
-572.55281853476959
 30
0.0
  0
VERTEX
  5
7E7
  8
DATA
  6
CONTINUOUS
 62
     7
 10
-509.46106750123499
 20
-572.54878124973902
 30
0.0
  0
VERTEX
  5
7E8
  8
DATA
  6
CONTINUOUS
 62
     7
 10
-509.43395073859767
 20
-572.54437407602916
 30
0.0
  0
VERTEX
  5
7E9
  8
DATA
  6
CONTINUOUS
 62
     7
 10
-509.40693229066841
 20
-572.53969547118436
 30
0.0
  0
VERTEX
  5
7EA
  8
DATA
  6
CONTINUOUS
 62
     7
 10
-509.38001215744703
 20
-572.53474543520474
 30
0.0
  0
VERTEX
  5
7EB
  8
DATA
  6
CONTINUOUS
 62
     7
 10
-509.35319033893342
 20
-572.52952396809007
 30
0.0
  0
VERTEX
  5
7EC
  8
DATA
  6
CONTINUOUS
 62
     7
 10
-509.32646683512741
 20
-572.52403106984048
 30
0.0
  0
VERTEX
  5
7ED
  8
DATA
  6
CONTINUOUS
 62
     7
 10
-509.29984164602951
 20
-572.51826674045606
 30
0.0
  0
VERTEX
  5
7EE
  8
DATA
  6
CONTINUOUS
 62
     7
 10
-509.27331477163909
 20
-572.51223097993636
 30
0.0
  0
VERTEX
  5
7EF
  8
DATA
  6
CONTINUOUS
 62
     7
 10
-509.24688621195668
 20
-572.50592378828196
 30
0.0
  0
VERTEX
  5
7F0
  8
DATA
  6
CONTINUOUS
 62
     7
 10
-509.22036526303668
 20
-572.49902345804537
 30
0.0
  0
VERTEX
  5
7F1
  8
DATA
  6
CONTINUOUS
 62
     7
 10
-509.1935612209333
 20
-572.49120828178025
 30
0.0
  0
VERTEX
  5
7F2
  8
DATA
  6
CONTINUOUS
 62
     7
 10
-509.166474085647
 20
-572.4824782594859
 30
0.0
  0
VERTEX
  5
7F3
  8
DATA
  6
CONTINUOUS
 62
     7
 10
-509.1391038571773
 20
-572.47283339116302
 30
0.0
  0
VERTEX
  5
7F4
  8
DATA
  6
CONTINUOUS
 62
     7
 10
-509.1114505355244
 20
-572.46227367681104
 30
0.0
  0
VERTEX
  5
7F5
  8
DATA
  6
CONTINUOUS
 62
     7
 10
-509.08351412068839
 20
-572.4507991164304
 30
0.0
  0
VERTEX
  5
7F6
  8
DATA
  6
CONTINUOUS
 62
     7
 10
-509.05529461266917
 20
-572.43840971002055
 30
0.0
  0
VERTEX
  5
7F7
  8
DATA
  6
CONTINUOUS
 62
     7
 10
-509.02679201146702
 20
-572.42510545758182
 30
0.0
  0
VERTEX
  5
7F8
  8
DATA
  6
CONTINUOUS
 62
     7
 10
-508.99882617015572
 20
-572.4111457867624
 30
0.0
  0
VERTEX
  5
7F9
  8
DATA
  6
CONTINUOUS
 62
     7
 10
-508.97221694180922
 20
-572.39679012520935
 30
0.0
  0
VERTEX
  5
7FA
  8
DATA
  6
CONTINUOUS
 62
     7
 10
-508.94696432642758
 20
-572.38203847292357
 30
0.0
  0
VERTEX
  5
7FB
  8
DATA
  6
CONTINUOUS
 62
     7
 10
-508.9230683240109
 20
-572.36689082990426
 30
0.0
  0
VERTEX
  5
7FC
  8
DATA
  6
CONTINUOUS
 62
     7
 10
-508.9005289345593
 20
-572.35134719615212
 30
0.0
  0
VERTEX
  5
7FD
  8
DATA
  6
CONTINUOUS
 62
     7
 10
-508.87934615807251
 20
-572.33540757166645
 30
0.0
  0
VERTEX
  5
7FE
  8
DATA
  6
CONTINUOUS
 62
     7
 10
-508.85951999455062
 20
-572.31907195644794
 30
0.0
  0
VERTEX
  5
7FF
  8
DATA
  6
CONTINUOUS
 62
     7
 10
-508.84105044399371
 20
-572.30234035049625
 30
0.0
  0
VERTEX
  5
800
  8
DATA
  6
CONTINUOUS
 62
     7
 10
-508.82407886807277
 20
-572.28565680660677
 30
0.0
  0
VERTEX
  5
801
  8
DATA
  6
CONTINUOUS
 62
     7
 10
-508.80874662845889
 20
-572.26946537757487
 30
0.0
  0
VERTEX
  5
802
  8
DATA
  6
CONTINUOUS
 62
     7
 10
-508.79505372515217
 20
-572.25376606340103
 30
0.0
  0
VERTEX
  5
803
  8
DATA
  6
CONTINUOUS
 62
     7
 10
-508.78300015815279
 20
-572.23855886408478
 30
0.0
  0
VERTEX
  5
804
  8
DATA
  6
CONTINUOUS
 62
     7
 10
-508.77258592746011
 20
-572.22384377962624
 30
0.0
  0
VERTEX
  5
805
  8
DATA
  6
CONTINUOUS
 62
     7
 10
-508.76381103307472
 20
-572.2096208100254
 30
0.0
  0
VERTEX
  5
806
  8
DATA
  6
CONTINUOUS
 62
     7
 10
-508.75667547499631
 20
-572.19588995528238
 30
0.0
  0
VERTEX
  5
807
  8
DATA
  6
CONTINUOUS
 62
     7
 10
-508.75117925322519
 20
-572.1826512153973
 30
0.0
  0
VERTEX
  5
808
  8
DATA
  6
CONTINUOUS
 62
     7
 10
-508.7467504331737
 20
-572.16982059140526
 30
0.0
  0
VERTEX
  5
809
  8
DATA
  6
CONTINUOUS
 62
     7
 10
-508.74281708025421
 20
-572.15731408434237
 30
0.0
  0
VERTEX
  5
80A
  8
DATA
  6
CONTINUOUS
 62
     7
 10
-508.73937919446678
 20
-572.1451316942082
 30
0.0
  0
VERTEX
  5
80B
  8
DATA
  6
CONTINUOUS
 62
     7
 10
-508.73643677581191
 20
-572.13327342100297
 30
0.0
  0
VERTEX
  5
80C
  8
DATA
  6
CONTINUOUS
 62
     7
 10
-508.73398982428893
 20
-572.12173926472678
 30
0.0
  0
VERTEX
  5
80D
  8
DATA
  6
CONTINUOUS
 62
     7
 10
-508.73203833989822
 20
-572.11052922537965
 30
0.0
  0
VERTEX
  5
80E
  8
DATA
  6
CONTINUOUS
 62
     7
 10
-508.73058232263969
 20
-572.09964330296123
 30
0.0
  0
VERTEX
  5
80F
  8
DATA
  6
CONTINUOUS
 62
     7
 10
-508.72962177251333
 20
-572.08908149747219
 30
0.0
  0
VERTEX
  5
810
  8
DATA
  6
CONTINUOUS
 62
     7
 10
-508.72962177251333
 20
-572.08908149747219
 30
0.0
  0
VERTEX
  5
811
  8
DATA
  6
CONTINUOUS
 62
     7
 10
-508.72962177137521
 20
-572.08088099738438
 30
0.0
  0
SEQEND
  5
812
  8
DATA
  6
CONTINUOUS
 62
     7
  0
LINE
  5
3DE
  8
DATA
  6
CONTINUOUS
 62
     7
 10
-515.67058118027489
 20
-562.6030211872752
 30
0.0
 11
-513.64106088527524
 21
-562.6030211872752
 31
0.0
  0
LINE
  5
3DF
  8
DATA
  6
CONTINUOUS
 62
     7
 10
-519.70932656732521
 20
-562.6030211872752
 30
0.0
 11
-516.44179889237512
 21
-562.6030211872752
 31
0.0
  0
LINE
  5
3E0
  8
DATA
  6
CONTINUOUS
 62
     7
 10
-505.6244557200252
 20
-562.6030211872752
 30
0.0
 11
-503.5137546132251
 21
-562.6030211872752
 31
0.0
  0
LINE
  5
3E1
  8
DATA
  6
CONTINUOUS
 62
     7
 10
-512.58571033187479
 20
-562.6030211872752
 30
0.0
 11
-508.70932656842518
 21
-562.6030211872752
 31
0.0
  0
LINE
  5
3E2
  8
DATA
  6
CONTINUOUS
 62
     7
 10
-510.73884686342529
 20
-563.63807653772494
 30
0.0
 11
-509.74438191887481
 21
-563.63807653772494
 31
0.0
  0
ARC
  5
3E3
  8
DATA
  6
CONTINUOUS
 62
     7
 10
-508.86978044294762
 20
-564.68802450809949
 30
0.0
 40
2.089707748868129
 50
8.2269240000023345
 51
86.154223000006795
  0
POLYLINE
  5
3E4
  8
DATA
  6
CONTINUOUS
 62
     7
 66
     1
 10
0.0
 20
0.0
 30
0.0
 70
   128
  0
VERTEX
  5
813
  8
DATA
  6
CONTINUOUS
 62
     7
 10
-508.72962177137521
 20
-564.12516144098447
 30
0.0
  0
VERTEX
  5
814
  8
DATA
  6
CONTINUOUS
 62
     7
 10
-508.72962177075891
 20
-564.12072336199139
 30
0.0
  0
VERTEX
  5
815
  8
DATA
  6
CONTINUOUS
 62
     7
 10
-508.73079967922217
 20
-564.10387184820752
 30
0.0
  0
VERTEX
  5
816
  8
DATA
  6
CONTINUOUS
 62
     7
 10
-508.73315675767282
 20
-564.08703053261672
 30
0.0
  0
VERTEX
  5
817
  8
DATA
  6
CONTINUOUS
 62
     7
 10
-508.73669300611078
 20
-564.07019941521878
 30
0.0
  0
VERTEX
  5
818
  8
DATA
  6
CONTINUOUS
 62
     7
 10
-508.74140842453602
 20
-564.05337849601415
 30
0.0
  0
VERTEX
  5
819
  8
DATA
  6
CONTINUOUS
 62
     7
 10
-508.74730301294869
 20
-564.03656777500248
 30
0.0
  0
VERTEX
  5
81A
  8
DATA
  6
CONTINUOUS
 62
     7
 10
-508.75437677134869
 20
-564.01976725218367
 30
0.0
  0
VERTEX
  5
81B
  8
DATA
  6
CONTINUOUS
 62
     7
 10
-508.76262969973601
 20
-564.00297692755817
 30
0.0
  0
VERTEX
  5
81C
  8
DATA
  6
CONTINUOUS
 62
     7
 10
-508.7720617981106
 20
-563.9861968011254
 30
0.0
  0
VERTEX
  5
81D
  8
DATA
  6
CONTINUOUS
 62
     7
 10
-508.78318635021111
 20
-563.96920967808455
 30
0.0
  0
VERTEX
  5
81E
  8
DATA
  6
CONTINUOUS
 62
     7
 10
-508.79651663977569
 20
-563.95179836363525
 30
0.0
  0
VERTEX
  5
81F
  8
DATA
  6
CONTINUOUS
 62
     7
 10
-508.81205266680468
 20
-563.93396285777669
 30
0.0
  0
VERTEX
  5
820
  8
DATA
  6
CONTINUOUS
 62
     7
 10
-508.82979443129801
 20
-563.91570316050945
 30
0.0
  0
VERTEX
  5
821
  8
DATA
  6
CONTINUOUS
 62
     7
 10
-508.8497419332557
 20
-563.8970192718333
 30
0.0
  0
VERTEX
  5
822
  8
DATA
  6
CONTINUOUS
 62
     7
 10
-508.87189517267763
 20
-563.8779111917479
 30
0.0
  0
VERTEX
  5
823
  8
DATA
  6
CONTINUOUS
 62
     7
 10
-508.89625414956379
 20
-563.85837892025359
 30
0.0
  0
VERTEX
  5
824
  8
DATA
  6
CONTINUOUS
 62
     7
 10
-508.92281886391442
 20
-563.83842245735036
 30
0.0
  0
VERTEX
  5
825
  8
DATA
  6
CONTINUOUS
 62
     7
 10
-508.95099270104839
 20
-563.81891687577956
 30
0.0
  0
VERTEX
  5
826
  8
DATA
  6
CONTINUOUS
 62
     7
 10
-508.980179046285
 20
-563.80073724828264
 30
0.0
  0
VERTEX
  5
827
  8
DATA
  6
CONTINUOUS
 62
     7
 10
-509.01037789962419
 20
-563.7838835748596
 30
0.0
  0
VERTEX
  5
828
  8
DATA
  6
CONTINUOUS
 62
     7
 10
-509.04158926106612
 20
-563.76835585551044
 30
0.0
  0
VERTEX
  5
829
  8
DATA
  6
CONTINUOUS
 62
     7
 10
-509.07381313061052
 20
-563.75415409023492
 30
0.0
  0
VERTEX
  5
82A
  8
DATA
  6
CONTINUOUS
 62
     7
 10
-509.10704950825738
 20
-563.74127827903328
 30
0.0
  0
VERTEX
  5
82B
  8
DATA
  6
CONTINUOUS
 62
     7
 10
-509.14129839400692
 20
-563.72972842190518
 30
0.0
  0
VERTEX
  5
82C
  8
DATA
  6
CONTINUOUS
 62
     7
 10
-509.17655978785899
 20
-563.71950451885095
 30
0.0
  0
VERTEX
  5
82D
  8
DATA
  6
CONTINUOUS
 62
     7
 10
-509.21122149062478
 20
-563.71034044247619
 30
0.0
  0
VERTEX
  5
82E
  8
DATA
  6
CONTINUOUS
 62
     7
 10
-509.24367130311509
 20
-563.7019700653866
 30
0.0
  0
VERTEX
  5
82F
  8
DATA
  6
CONTINUOUS
 62
     7
 10
-509.27390922533021
 20
-563.69439338758252
 30
0.0
  0
VERTEX
  5
830
  8
DATA
  6
CONTINUOUS
 62
     7
 10
-509.3019352572698
 20
-563.68761040906338
 30
0.0
  0
VERTEX
  5
831
  8
DATA
  6
CONTINUOUS
 62
     7
 10
-509.32774939893397
 20
-563.68162112982964
 30
0.0
  0
VERTEX
  5
832
  8
DATA
  6
CONTINUOUS
 62
     7
 10
-509.3513516503229
 20
-563.67642554988072
 30
0.0
  0
VERTEX
  5
833
  8
DATA
  6
CONTINUOUS
 62
     7
 10
-509.37274201143612
 20
-563.6720236692172
 30
0.0
  0
VERTEX
  5
834
  8
DATA
  6
CONTINUOUS
 62
     7
 10
-509.39192048227397
 20
-563.66841548783884
 30
0.0
  0
VERTEX
  5
835
  8
DATA
  6
CONTINUOUS
 62
     7
 10
-509.41018045329531
 20
-563.66527492920522
 30
0.0
  0
VERTEX
  5
836
  8
DATA
  6
CONTINUOUS
 62
     7
 10
-509.42881531495829
 20
-563.66227591677614
 30
0.0
  0
VERTEX
  5
837
  8
DATA
  6
CONTINUOUS
 62
     7
 10
-509.44782506726278
 20
-563.65941845055158
 30
0.0
  0
VERTEX
  5
838
  8
DATA
  6
CONTINUOUS
 62
     7
 10
-509.4672097102092
 20
-563.65670253053111
 30
0.0
  0
VERTEX
  5
839
  8
DATA
  6
CONTINUOUS
 62
     7
 10
-509.48696924379749
 20
-563.65412815671516
 30
0.0
  0
VERTEX
  5
83A
  8
DATA
  6
CONTINUOUS
 62
     7
 10
-509.5071036680273
 20
-563.65169532910375
 30
0.0
  0
VERTEX
  5
83B
  8
DATA
  6
CONTINUOUS
 62
     7
 10
-509.52761298289909
 20
-563.64940404769675
 30
0.0
  0
VERTEX
  5
83C
  8
DATA
  6
CONTINUOUS
 62
     7
 10
-509.54849718841251
 20
-563.64725431249451
 30
0.0
  0
VERTEX
  5
83D
  8
DATA
  6
CONTINUOUS
 62
     7
 10
-509.56985111308882
 20
-563.64529181792614
 30
0.0
  0
VERTEX
  5
83E
  8
DATA
  6
CONTINUOUS
 62
     7
 10
-509.59176958544879
 20
-563.64356225842096
 30
0.0
  0
VERTEX
  5
83F
  8
DATA
  6
CONTINUOUS
 62
     7
 10
-509.61425260549311
 20
-563.64206563397966
 30
0.0
  0
VERTEX
  5
840
  8
DATA
  6
CONTINUOUS
 62
     7
 10
-509.63730017322121
 20
-563.64080194460155
 30
0.0
  0
VERTEX
  5
841
  8
DATA
  6
CONTINUOUS
 62
     7
 10
-509.6609122886332
 20
-563.63977119028721
 30
0.0
  0
VERTEX
  5
842
  8
DATA
  6
CONTINUOUS
 62
     7
 10
-509.68508895172903
 20
-563.63897337103617
 30
0.0
  0
VERTEX
  5
843
  8
DATA
  6
CONTINUOUS
 62
     7
 10
-509.70983016250909
 20
-563.63840848684879
 30
0.0
  0
VERTEX
  5
844
  8
DATA
  6
CONTINUOUS
 62
     7
 10
-509.73513592097288
 20
-563.63807653772494
 30
0.0
  0
VERTEX
  5
845
  8
DATA
  6
CONTINUOUS
 62
     7
 10
-509.73513592097288
 20
-563.63807653772494
 30
0.0
  0
VERTEX
  5
846
  8
DATA
  6
CONTINUOUS
 62
     7
 10
-509.74438191887481
 20
-563.63807653772494
 30
0.0
  0
SEQEND
  5
847
  8
DATA
  6
CONTINUOUS
 62
     7
  0
TEXT
  5
41A
  8
DATA
 62
     7
 10
-524.80250000000012
 20
-553.66993553750012
 30
0.0
 40
2.8932571411132808
  1
CONTROL
 41
0.8
 11
-524.80250000000012
 21
-550.77667839638684
 31
0.0
 73
     3
  0
TEXT
  5
41B
  8
DATA
 62
     7
 10
-499.47689172159778
 20
-553.66993553750012
 30
0.0
 40
2.8932571411132808
  1
28
 41
0.8
 11
-499.47689172159778
 21
-550.77667839638684
 31
0.0
 73
     3
  0
LINE
  5
41C
  8
DATA
  6
CONTINUOUS
 62
     7
 10
-639.60677720000012
 20
-222.50000000000091
 30
0.0
 11
-639.60677720000012
 21
-218.83024586837431
 31
0.0
  0
ARC
  5
41D
  8
DATA
  6
CONTINUOUS
 62
     7
 10
-633.90351816912153
 20
-207.7071691165624
 30
0.0
 40
12.49999999999984
 50
185.3000000000014
 51
267.87458367191152
  0
LINE
  5
41E
  8
DATA
  6
CONTINUOUS
 62
     7
 10
-650.0
 20
-169.5168250860481
 30
0.0
 11
-646.35007689642862
 21
-208.86180145964451
 31
0.0
  0
ARC
  5
41F
  8
DATA
  6
CONTINUOUS
 62
     7
 10
-566.20185955205125
 20
-21.017008799999989
 30
0.0
 40
20.0
 50
90.0
 51
157.29999999999961
  0
LINE
  5
420
  8
DATA
  6
CONTINUOUS
 62
     7
 10
-650.0
 20
-169.51682508604651
 30
0.0
 11
-584.65262134117609
 21
-13.29888795351326
 31
0.0
  0
LINE
  5
421
  8
DATA
  6
CONTINUOUS
 62
     7
 10
-566.20185955205125
 20
-1.017008799999757
 30
0.0
 11
-454.39814044794912
 21
-1.0170088000004389
 31
0.0
  0
LINE
  5
422
  8
DATA
  6
CONTINUOUS
 62
     7
 10
-380.99322280000013
 20
-793.42675940000004
 30
0.0
 11
-380.99322280000013
 21
-425.0176156
 31
0.0
  0
LINE
  5
423
  8
DATA
  6
CONTINUOUS
 62
     7
 10
-370.59999999999991
 20
-796.81999999999982
 30
0.0
 11
-370.59999999999991
 21
-421.62434960000002
 31
0.0
  0
LINE
  5
424
  8
DATA
  6
CONTINUOUS
 62
     7
 10
-87.327279600000139
 20
-422.18088010000008
 30
0.0
 11
-87.327279600000139
 21
-796.26346949999981
 31
0.0
  0
LINE
  5
425
  8
DATA
  6
CONTINUOUS
 62
     7
 10
-100.0
 20
-793.72346949999985
 30
0.0
 11
-100.0
 21
-424.7208801000001
 31
0.0
  0
LINE
  5
426
  8
DATA
  6
CONTINUOUS
 62
     7
 10
-73.503761399999803
 20
-798.67894600000011
 30
0.0
 11
-73.503761399999803
 21
-419.7653782000001
 31
0.0
  0
LINE
  5
427
  8
DATA
  6
CONTINUOUS
 62
     7
 10
-44.51682508604744
 20
-422.30140787561157
 30
0.0
 11
-44.51682508604744
 21
-796.14291632438903
 31
0.0
  0
ARC
  5
428
  8
DATA
  6
CONTINUOUS
 62
     7
 10
-431.49825260000028
 20
-761.48857079999982
 30
0.0
 40
6.8764403999998116
 50
285.20470599999948
 51
344.79529400000149
  0
ARC
  5
429
  8
DATA
  6
CONTINUOUS
 62
     7
 10
-384.16822280000002
 20
-793.42675940000004
 30
0.0
 40
3.1749999999999541
 50
270.0
 51
0.0
  0
LINE
  5
42A
  8
DATA
  6
CONTINUOUS
 62
     7
 10
-386.01625060000021
 20
-787.3393699999998
 30
0.0
 11
-386.01625060000021
 21
-779.97336999999982
 31
0.0
  0
ARC
  5
42B
  8
DATA
  6
CONTINUOUS
 62
     7
 10
-394.1442506000003
 20
-789.62536999999986
 30
0.0
 40
1.523999999999887
 50
90.0
 51
180.0
  0
ARC
  5
42C
  8
DATA
  6
CONTINUOUS
 62
     7
 10
-386.77825060000032
 20
-787.3393699999998
 30
0.0
 40
0.7619999999999437
 50
270.0
 51
0.0
  0
LINE
  5
42D
  8
DATA
  6
CONTINUOUS
 62
     7
 10
-382.00922280000032
 20
-791.14936999999975
 30
0.0
 11
-382.00922280000032
 21
-787.97436999999968
 31
0.0
  0
LINE
  5
42E
  8
DATA
  6
CONTINUOUS
 62
     7
 10
-385.1842228000005
 20
-791.14936999999975
 30
0.0
 11
-382.00922280000032
 21
-791.14936999999975
 31
0.0
  0
LINE
  5
42F
  8
DATA
  6
CONTINUOUS
 62
     7
 10
-395.66825060000008
 20
-791.14936999999975
 30
0.0
 11
-385.1842228000005
 21
-791.14936999999975
 31
0.0
  0
LINE
  5
430
  8
DATA
  6
CONTINUOUS
 62
     7
 10
-395.66825060000008
 20
-791.14936999999975
 30
0.0
 11
-395.66825060000008
 21
-789.62536999999986
 31
0.0
  0
LINE
  5
431
  8
DATA
  6
CONTINUOUS
 62
     7
 10
-394.1442506000003
 20
-788.10136999999975
 30
0.0
 11
-386.77825060000032
 21
-788.10136999999975
 31
0.0
  0
CIRCLE
  5
432
  8
DATA
  6
CONTINUOUS
 62
     7
 10
-395.69994980000052
 20
-760.14153260000001
 30
0.0
 40
5.999988000000485
  0
ARC
  5
433
  8
DATA
  6
CONTINUOUS
 62
     7
 10
-384.4922506000002
 20
-779.97336999999982
 30
0.0
 40
1.523999999999887
 50
90.0
 51
180.0
  0
LINE
  5
434
  8
DATA
  6
CONTINUOUS
 62
     7
 10
-384.4922506000002
 20
-778.44937000000004
 30
0.0
 11
-382.96825059999992
 21
-778.44937000000004
 31
0.0
  0
LINE
  5
435
  8
DATA
  6
CONTINUOUS
 62
     7
 10
-399.12894980000021
 20
-760.14153260000001
 30
0.0
 11
-392.27094980000038
 21
-760.14153260000001
 31
0.0
  0
LINE
  5
436
  8
DATA
  6
CONTINUOUS
 62
     7
 10
-395.69994980000001
 20
-763.57053260000009
 30
0.0
 11
-395.69994980000001
 21
-756.71253260000015
 31
0.0
  0
ARC
  5
437
  8
DATA
  6
CONTINUOUS
 62
     7
 10
-403.23103540301548
 20
-686.33179010600327
 30
0.0
 40
28.585404946098262
 50
229.6955198939844
 51
269.91393144691227
  0
LINE
  5
438
  8
DATA
  6
CONTINUOUS
 62
     7
 10
-424.86250260000003
 20
-763.29204700000014
 30
0.0
 11
-411.39176500000019
 21
-713.72755380000012
 31
0.0
  0
LINE
  5
439
  8
DATA
  6
CONTINUOUS
 62
     7
 10
-382.96825059999992
 20
-778.44937000000004
 30
0.0
 11
-382.96825059999992
 21
-706.40900080012193
 31
0.0
  0
ARC
  5
43A
  8
DATA
  6
CONTINUOUS
 62
     7
 10
-407.29006306699603
 20
-676.84722328962073
 30
0.0
 40
38.28118664905908
 50
276.02199330509728
 51
313.38829035201002
  0
LINE
  5
43B
  8
DATA
  6
CONTINUOUS
 62
     7
 10
-382.00922280000032
 20
-787.97436999999968
 30
0.0
 11
-382.00922280000032
 21
-705.59315111696242
 31
0.0
  0
ARC
  5
43C
  8
DATA
  6
CONTINUOUS
 62
     7
 10
-373.77999999999969
 20
-796.81999999999982
 30
0.0
 40
3.1800000000000641
 50
270.0
 51
0.0
  0
ARC
  5
43D
  8
DATA
  6
CONTINUOUS
 62
     7
 10
-97.460000000000505
 20
-793.72346949999985
 30
0.0
 40
2.5399999999999641
 50
180.0
 51
270.0
  0
LINE
  5
43E
  8
DATA
  6
CONTINUOUS
 62
     7
 10
-87.327279600000139
 20
-796.26346949999981
 30
0.0
 11
-97.460000000000505
 21
-796.26346949999981
 31
0.0
  0
ARC
  5
43F
  8
DATA
  6
CONTINUOUS
 62
     7
 10
-88.742008800000349
 20
-796.82500000000005
 30
0.0
 40
3.1749999999997272
 50
180.0
 51
275.00000000000398
  0
LINE
  5
440
  8
DATA
  6
CONTINUOUS
 62
     7
 10
-91.917008800000076
 20
-796.82500000000005
 30
0.0
 11
-91.917008800000076
 21
-796.26346949999981
 31
0.0
  0
ARC
  5
441
  8
DATA
  6
CONTINUOUS
 62
     7
 10
-384.16822280000002
 20
-425.0176156
 30
0.0
 40
3.1749999999997272
 50
0.0
 51
90.0
  0
ARC
  5
442
  8
DATA
  6
CONTINUOUS
 62
     7
 10
-386.77825060000032
 20
-431.76753860000008
 30
0.0
 40
0.7620000000001709
 50
0.0
 51
90.0
  0
ARC
  5
443
  8
DATA
  6
CONTINUOUS
 62
     7
 10
-394.1442506000003
 20
-429.48153860000019
 30
0.0
 40
1.523999999999887
 50
180.0
 51
270.0
  0
ARC
  5
444
  8
DATA
  6
CONTINUOUS
 62
     7
 10
-384.4922506000002
 20
-439.13353860000001
 30
0.0
 40
1.523999999999887
 50
180.0
 51
270.0
  0
LINE
  5
445
  8
DATA
  6
CONTINUOUS
 62
     7
 10
-395.66825060000008
 20
-427.95753860000008
 30
0.0
 11
-395.66825060000008
 21
-429.48153860000019
 31
0.0
  0
LINE
  5
446
  8
DATA
  6
CONTINUOUS
 62
     7
 10
-394.1442506000003
 20
-431.00553860000008
 30
0.0
 11
-386.77825060000032
 21
-431.00553860000008
 31
0.0
  0
LINE
  5
447
  8
DATA
  6
CONTINUOUS
 62
     7
 10
-386.01625060000021
 20
-431.76753860000008
 30
0.0
 11
-386.01625060000021
 21
-439.13353860000001
 31
0.0
  0
LINE
  5
448
  8
DATA
  6
CONTINUOUS
 62
     7
 10
-384.4922506000002
 20
-440.65753860000012
 30
0.0
 11
-382.96825059999992
 21
-440.65753860000012
 31
0.0
  0
CIRCLE
  5
449
  8
DATA
  6
CONTINUOUS
 62
     7
 10
-395.69994980000052
 20
-458.81018200000022
 30
0.0
 40
5.999988000000485
  0
LINE
  5
44A
  8
DATA
  6
CONTINUOUS
 62
     7
 10
-399.12894980000021
 20
-458.81018200000022
 30
0.0
 11
-392.27094980000038
 21
-458.81018200000022
 31
0.0
  0
LINE
  5
44B
  8
DATA
  6
CONTINUOUS
 62
     7
 10
-395.69994980000001
 20
-462.2391820000002
 30
0.0
 11
-395.69994980000001
 21
-455.38118200000031
 31
0.0
  0
LINE
  5
44C
  8
DATA
  6
CONTINUOUS
 62
     7
 10
-382.00922280000032
 20
-487.88322776926179
 30
0.0
 11
-382.00922280000032
 21
-427.95753860000008
 31
0.0
  0
LINE
  5
44D
  8
DATA
  6
CONTINUOUS
 62
     7
 10
-382.96825059999992
 20
-487.03797181656842
 30
0.0
 11
-382.96825059999992
 21
-440.65753860000012
 31
0.0
  0
ARC
  5
44E
  8
DATA
  6
CONTINUOUS
 62
     7
 10
-373.77999999999969
 20
-421.62434960000002
 30
0.0
 40
3.1799999999998358
 50
0.0
 51
90.0
  0
LINE
  5
44F
  8
DATA
  6
CONTINUOUS
 62
     7
 10
-380.99322279999978
 20
-222.50000000000031
 30
0.0
 11
-380.99322279999978
 21
-218.83024586837431
 31
0.0
  0
ARC
  5
450
  8
DATA
  6
CONTINUOUS
 62
     7
 10
-386.69648183087838
 20
-207.7071691165622
 30
0.0
 40
12.49999999999994
 50
272.12541632808222
 51
354.69999999999868
  0
LINE
  5
451
  8
DATA
  6
CONTINUOUS
 62
     7
 10
-374.24992310357118
 20
-208.86180145964431
 30
0.0
 11
-370.59999999999991
 21
-169.5168250860481
 31
0.0
  0
LINE
  5
452
  8
DATA
  6
CONTINUOUS
 62
     7
 10
-435.94737865882422
 20
-13.29888795351394
 30
0.0
 11
-370.59999999999991
 21
-169.5168250860481
 31
0.0
  0
ARC
  5
453
  8
DATA
  6
CONTINUOUS
 62
     7
 10
-97.460000000000505
 20
-424.7208801000001
 30
0.0
 40
2.5399999999999641
 50
90.0
 51
180.0
  0
LINE
  5
454
  8
DATA
  6
CONTINUOUS
 62
     7
 10
-97.460000000000505
 20
-422.18088010000008
 30
0.0
 11
-87.327279600000139
 21
-422.18088010000008
 31
0.0
  0
ARC
  5
455
  8
DATA
  6
CONTINUOUS
 62
     7
 10
-88.742008800000349
 20
-421.61934960000002
 30
0.0
 40
3.1750000000001131
 50
84.999999999996064
 51
180.0
  0
LINE
  5
456
  8
DATA
  6
CONTINUOUS
 62
     7
 10
-91.917008800000076
 20
-421.61934960000002
 30
0.0
 11
-91.917008800000076
 21
-422.18088010000008
 31
0.0
  0
LINE
  5
457
  8
DATA
  6
CONTINUOUS
 62
     7
 10
-685.0
 20
125.0
 30
0.0
 11
-235.0
 21
125.0
 31
0.0
  0
LINE
  5
458
  8
DATA
  6
CONTINUOUS
 62
     7
 10
-630.49999999999989
 20
463.19969418674242
 30
0.0
 11
-630.49999999999989
 21
498.00000000000023
 31
0.0
  0
LINE
  5
459
  8
DATA
  6
CONTINUOUS
 62
     7
 10
-619.5
 20
463.19969418674242
 30
0.0
 11
-619.5
 21
498.00000000000023
 31
0.0
  0
LINE
  5
45A
  8
DATA
  6
CONTINUOUS
 62
     7
 10
-536.80030581325764
 20
344.49999999999977
 30
0.0
 11
-502.0
 21
344.49999999999977
 31
0.0
  0
LINE
  5
45B
  8
DATA
  6
CONTINUOUS
 62
     7
 10
-502.0
 20
355.49999999999977
 30
0.0
 11
-536.80030581325809
 21
355.49999999999977
 31
0.0
  0
LINE
  5
45C
  8
DATA
  6
CONTINUOUS
 62
     7
 10
-591.0
 20
308.0
 30
0.0
 11
-591.0
 21
391.99999999999977
 31
0.0
  0
LINE
  5
45D
  8
DATA
  6
CONTINUOUS
 62
     7
 10
-590.0
 20
308.0
 30
0.0
 11
-590.0
 21
392.00000000000023
 31
0.0
  0
LINE
  5
45E
  8
DATA
  6
CONTINUOUS
 62
     7
 10
-660.0
 20
308.0
 30
0.0
 11
-660.0
 21
391.99999999999977
 31
0.0
  0
LINE
  5
45F
  8
DATA
  6
CONTINUOUS
 62
     7
 10
-659.0
 20
308.0
 30
0.0
 11
-659.0
 21
391.99999999999977
 31
0.0
  0
LINE
  5
460
  8
DATA
  6
CONTINUOUS
 62
     7
 10
-591.0
 20
359.87956810631232
 30
0.0
 11
-600.0
 21
359.87956810631232
 31
0.0
  0
LINE
  5
461
  8
DATA
  6
CONTINUOUS
 62
     7
 10
-591.0
 20
358.74999999999977
 30
0.0
 11
-600.0
 21
358.74999999999977
 31
0.0
  0
LINE
  5
462
  8
DATA
  6
CONTINUOUS
 62
     7
 10
-591.0
 20
341.24999999999972
 30
0.0
 11
-600.0
 21
341.24999999999972
 31
0.0
  0
LINE
  5
463
  8
DATA
  6
CONTINUOUS
 62
     7
 10
-600.0
 20
340.12043189368768
 30
0.0
 11
-591.0
 21
340.12043189368768
 31
0.0
  0
ARC
  5
464
  8
DATA
  6
CONTINUOUS
 62
     7
 10
-600.0
 20
350.0
 30
0.0
 40
9.8795681063122878
 50
210.63293386126011
 51
270.0
  0
ARC
  5
465
  8
DATA
  6
CONTINUOUS
 62
     7
 10
-600.0
 20
350.0
 30
0.0
 40
9.8795681063122647
 50
90.0
 51
149.3670661387398
  0
ARC
  5
466
  8
DATA
  6
CONTINUOUS
 62
     7
 10
-600.0
 20
350.0
 30
0.0
 40
8.7499999999999822
 50
202.56742262803559
 51
270.0
  0
ARC
  5
467
  8
DATA
  6
CONTINUOUS
 62
     7
 10
-600.0
 20
350.0
 30
0.0
 40
8.75
 50
90.0
 51
157.43257737196441
  0
CIRCLE
  5
468
  8
DATA
  6
CONTINUOUS
 62
     7
 10
-600.0
 20
350.0
 30
0.0
 40
3.5
  0
ARC
  5
469
  8
DATA
  6
CONTINUOUS
 62
     7
 10
-594.0
 20
308.0
 30
0.0
 40
3.0
 50
270.0
 51
0.0
  0
ARC
  5
46A
  8
DATA
  6
CONTINUOUS
 62
     7
 10
-593.0
 20
308.0
 30
0.0
 40
3.0
 50
270.0
 51
0.0
  0
LINE
  5
46B
  8
DATA
  6
CONTINUOUS
 62
     7
 10
-615.12043189368751
 20
315.5
 30
0.0
 11
-615.12043189368751
 21
305.00000000000028
 31
0.0
  0
LINE
  5
46C
  8
DATA
  6
CONTINUOUS
 62
     7
 10
-616.25
 20
315.5
 30
0.0
 11
-616.25
 21
305.0
 31
0.0
  0
ARC
  5
46D
  8
DATA
  6
CONTINUOUS
 62
     7
 10
-650.0
 20
350.0
 30
0.0
 40
9.8795681063121723
 50
30.632933861258991
 51
90.0
  0
ARC
  5
46E
  8
DATA
  6
CONTINUOUS
 62
     7
 10
-650.0
 20
350.0
 30
0.0
 40
9.8795681063122647
 50
270.0
 51
329.36706613874122
  0
ARC
  5
46F
  8
DATA
  6
CONTINUOUS
 62
     7
 10
-650.0
 20
350.0
 30
0.0
 40
8.7499999999998082
 50
22.567422628032912
 51
90.0
  0
ARC
  5
470
  8
DATA
  6
CONTINUOUS
 62
     7
 10
-650.0
 20
350.0
 30
0.0
 40
8.75
 50
270.0
 51
337.4325773719674
  0
LINE
  5
471
  8
DATA
  6
CONTINUOUS
 62
     7
 10
-650.0
 20
359.87956810631232
 30
0.0
 11
-659.0
 21
359.87956810631232
 31
0.0
  0
LINE
  5
472
  8
DATA
  6
CONTINUOUS
 62
     7
 10
-650.0
 20
358.74999999999977
 30
0.0
 11
-659.0
 21
358.74999999999977
 31
0.0
  0
LINE
  5
473
  8
DATA
  6
CONTINUOUS
 62
     7
 10
-650.0
 20
341.24999999999972
 30
0.0
 11
-659.0
 21
341.24999999999972
 31
0.0
  0
LINE
  5
474
  8
DATA
  6
CONTINUOUS
 62
     7
 10
-650.0
 20
340.12043189368768
 30
0.0
 11
-659.0
 21
340.12043189368768
 31
0.0
  0
CIRCLE
  5
475
  8
DATA
  6
CONTINUOUS
 62
     7
 10
-650.0
 20
350.0
 30
0.0
 40
3.5
  0
ARC
  5
476
  8
DATA
  6
CONTINUOUS
 62
     7
 10
-657.0
 20
308.0
 30
0.0
 40
3.0
 50
180.0
 51
270.0
  0
ARC
  5
477
  8
DATA
  6
CONTINUOUS
 62
     7
 10
-656.0
 20
308.0
 30
0.0
 40
3.0
 50
180.0
 51
270.0
  0
LINE
  5
478
  8
DATA
  6
CONTINUOUS
 62
     7
 10
-633.75
 20
315.5
 30
0.0
 11
-633.75
 21
305.0
 31
0.0
  0
LINE
  5
479
  8
DATA
  6
CONTINUOUS
 62
     7
 10
-634.87956810631204
 20
315.5
 30
0.0
 11
-634.87956810631204
 21
305.0
 31
0.0
  0
CIRCLE
  5
47A
  8
DATA
  6
CONTINUOUS
 62
     7
 10
-625.0
 20
315.5
 30
0.0
 40
3.5
  0
ARC
  5
47B
  8
DATA
  6
CONTINUOUS
 62
     7
 10
-625.0
 20
315.5
 30
0.0
 40
8.75
 50
0.0
 51
180.0
  0
ARC
  5
47C
  8
DATA
  6
CONTINUOUS
 62
     7
 10
-625.0
 20
315.5
 30
0.0
 40
9.8795681063124903
 50
0.0
 51
180.0
  0
CIRCLE
  5
47D
  8
DATA
  6
CONTINUOUS
 62
     7
 10
-625.0
 20
350.0
 30
0.0
 40
17.25
  0
LINE
  5
47E
  8
DATA
  6
CONTINUOUS
 62
     7
 10
-657.0
 20
305.00000000000028
 30
0.0
 11
-593.0
 21
305.0
 31
0.0
  0
CIRCLE
  5
47F
  8
DATA
  6
CONTINUOUS
 62
     7
 10
-625.0
 20
446.85000000000042
 30
0.0
 40
17.25
  0
ARC
  5
480
  8
DATA
  6
CONTINUOUS
 62
     7
 10
-594.0
 20
391.99999999999977
 30
0.0
 40
3.0
 50
0.0
 51
90.0
  0
ARC
  5
481
  8
DATA
  6
CONTINUOUS
 62
     7
 10
-593.0
 20
392.00000000000023
 30
0.0
 40
3.0
 50
0.0
 51
90.0
  0
LINE
  5
482
  8
DATA
  6
CONTINUOUS
 62
     7
 10
-615.12043189368751
 20
384.50000000000051
 30
0.0
 11
-615.12043189368751
 21
394.99999999999977
 31
0.0
  0
LINE
  5
483
  8
DATA
  6
CONTINUOUS
 62
     7
 10
-616.25
 20
384.50000000000051
 30
0.0
 11
-616.25
 21
394.99999999999977
 31
0.0
  0
LINE
  5
484
  8
DATA
  6
CONTINUOUS
 62
     7
 10
-633.75
 20
384.50000000000051
 30
0.0
 11
-633.75
 21
394.99999999999977
 31
0.0
  0
LINE
  5
485
  8
DATA
  6
CONTINUOUS
 62
     7
 10
-634.87956810631204
 20
384.50000000000051
 30
0.0
 11
-634.87956810631204
 21
394.99999999999977
 31
0.0
  0
ARC
  5
486
  8
DATA
  6
CONTINUOUS
 62
     7
 10
-657.0
 20
391.99999999999977
 30
0.0
 40
3.0
 50
90.0
 51
180.0
  0
ARC
  5
487
  8
DATA
  6
CONTINUOUS
 62
     7
 10
-656.0
 20
391.99999999999977
 30
0.0
 40
3.0
 50
90.0
 51
180.0
  0
ARC
  5
488
  8
DATA
  6
CONTINUOUS
 62
     7
 10
-625.0
 20
384.50000000000051
 30
0.0
 40
8.75
 50
180.0
 51
0.0
  0
CIRCLE
  5
489
  8
DATA
  6
CONTINUOUS
 62
     7
 10
-625.0
 20
384.49999999999977
 30
0.0
 40
3.5
  0
ARC
  5
48A
  8
DATA
  6
CONTINUOUS
 62
     7
 10
-625.0
 20
384.50000000000051
 30
0.0
 40
9.8795681063120355
 50
180.0
 51
0.0
  0
LINE
  5
48B
  8
DATA
  6
CONTINUOUS
 62
     7
 10
-657.0
 20
394.99999999999977
 30
0.0
 11
-593.0
 21
394.99999999999977
 31
0.0
  0
ARC
  5
48C
  8
DATA
  6
CONTINUOUS
 62
     7
 10
-553.15000000000009
 20
350.0
 30
0.0
 40
17.250000000000071
 50
18.59282254942736
 51
341.4071774505735
  0
LINE
  5
48D
  8
DATA
  6
CONTINUOUS
 62
     7
 10
-536.80030581325809
 20
355.49999999999977
 30
0.0
 11
-536.80030581325764
 21
344.49999999999977
 31
0.0
  0
LINE
  5
48E
  8
DATA
  6
CONTINUOUS
 62
     7
 10
-493.0
 20
359.5
 30
0.0
 11
-490.5
 21
359.5
 31
0.0
  0
LINE
  5
48F
  8
DATA
  6
CONTINUOUS
 62
     7
 10
-493.0
 20
345.0
 30
0.0
 11
-490.5
 21
345.0
 31
0.0
  0
LINE
  5
490
  8
DATA
  6
CONTINUOUS
 62
     7
 10
-493.0
 20
340.5000000000004
 30
0.0
 11
-490.5
 21
340.5000000000004
 31
0.0
  0
LINE
  5
491
  8
DATA
  6
CONTINUOUS
 62
     7
 10
-502.0
 20
350.0
 30
0.0
 11
-493.0
 21
350.0
 31
0.0
  0
LINE
  5
492
  8
DATA
  6
CONTINUOUS
 62
     7
 10
-502.0
 20
358.4437476868984
 30
0.0
 11
-493.0
 21
358.4437476868984
 31
0.0
  0
LINE
  5
493
  8
DATA
  6
CONTINUOUS
 62
     7
 10
-502.0
 20
341.55625231310211
 30
0.0
 11
-493.0
 21
341.55625231310211
 31
0.0
  0
LINE
  5
494
  8
DATA
  6
CONTINUOUS
 62
     7
 10
-502.0
 20
358.4437476868984
 30
0.0
 11
-502.0
 21
341.55625231310211
 31
0.0
  0
LINE
  5
495
  8
DATA
  6
CONTINUOUS
 62
     7
 10
-493.0
 20
359.5
 30
0.0
 11
-493.0
 21
340.5000000000004
 31
0.0
  0
LINE
  5
496
  8
DATA
  6
CONTINUOUS
 62
     7
 10
-475.0
 20
394.99999999999977
 30
0.0
 11
-475.0
 21
305.0
 31
0.0
  0
LINE
  5
497
  8
DATA
  6
CONTINUOUS
 62
     7
 10
-480.49999999999989
 20
394.99999999999977
 30
0.0
 11
-480.49999999999989
 21
305.0
 31
0.0
  0
LINE
  5
498
  8
DATA
  6
CONTINUOUS
 62
     7
 10
-488.49999999999989
 20
394.99999999999977
 30
0.0
 11
-488.49999999999989
 21
360.50000000000023
 31
0.0
  0
LINE
  5
499
  8
DATA
  6
CONTINUOUS
 62
     7
 10
-488.49999999999989
 20
339.50000000000028
 30
0.0
 11
-488.49999999999989
 21
305.0
 31
0.0
  0
LINE
  5
49A
  8
DATA
  6
CONTINUOUS
 62
     7
 10
-488.49999999999989
 20
305.0
 30
0.0
 11
-475.0
 21
305.0
 31
0.0
  0
LINE
  5
49B
  8
DATA
  6
CONTINUOUS
 62
     7
 10
-488.36712570717128
 20
358.99999999999977
 30
0.0
 11
-480.49999999999989
 21
358.99999999999977
 31
0.0
  0
LINE
  5
49C
  8
DATA
  6
CONTINUOUS
 62
     7
 10
-488.367125707171
 20
340.99999999999972
 30
0.0
 11
-480.49999999999989
 21
340.99999999999972
 31
0.0
  0
LINE
  5
49D
  8
DATA
  6
CONTINUOUS
 62
     7
 10
-488.49999999999989
 20
360.50000000000023
 30
0.0
 11
-490.5
 21
360.50000000000023
 31
0.0
  0
LINE
  5
49E
  8
DATA
  6
CONTINUOUS
 62
     7
 10
-490.5
 20
339.50000000000028
 30
0.0
 11
-488.49999999999989
 21
339.50000000000028
 31
0.0
  0
LINE
  5
49F
  8
DATA
  6
CONTINUOUS
 62
     7
 10
-490.5
 20
360.49999999999977
 30
0.0
 11
-490.5
 21
339.50000000000028
 31
0.0
  0
ARC
  5
4A0
  8
DATA
  6
CONTINUOUS
 62
     7
 10
-598.50000000002126
 20
349.99999999999932
 30
0.0
 40
110.5000000000212
 50
354.54737801218869
 51
5.4526219878118241
  0
LINE
  5
4A1
  8
DATA
  6
CONTINUOUS
 62
     7
 10
-488.49999999999989
 20
394.99999999999977
 30
0.0
 11
-475.0
 21
394.99999999999977
 31
0.0
  0
LINE
  5
4A2
  8
DATA
  6
CONTINUOUS
 62
     7
 10
-660.0
 20
525.0
 30
0.0
 11
-590.0
 21
525.0
 31
0.0
  0
LINE
  5
4A3
  8
DATA
  6
CONTINUOUS
 62
     7
 10
-633.75
 20
519.00000000000011
 30
0.0
 11
-616.25
 21
519.00000000000011
 31
0.0
  0
ARC
  5
4A4
  8
DATA
  6
CONTINUOUS
 62
     7
 10
-654.53826909813688
 20
522.91132975849996
 30
0.0
 40
4.9999999999996723
 50
190.30484646876741
 51
245.5076213631356
  0
LINE
  5
4A5
  8
DATA
  6
CONTINUOUS
 62
     7
 10
-660.0
 20
525.0
 30
0.0
 11
-659.45761864863596
 21
522.01690256749976
 31
0.0
  0
ARC
  5
4A6
  8
DATA
  6
CONTINUOUS
 62
     7
 10
-595.46173090186301
 20
522.91132975849916
 30
0.0
 40
4.999999999999905
 50
294.4923786368646
 51
349.69515353123239
  0
LINE
  5
4A7
  8
DATA
  6
CONTINUOUS
 62
     7
 10
-590.54238135136336
 20
522.0169025674993
 30
0.0
 11
-590.0
 21
525.0
 31
0.0
  0
LINE
  5
4A8
  8
DATA
  6
CONTINUOUS
 62
     7
 10
-634.75000000000045
 20
498.00000000000023
 30
0.0
 11
-615.24999999999989
 21
498.00000000000023
 31
0.0
  0
LINE
  5
4A9
  8
DATA
  6
CONTINUOUS
 62
     7
 10
-635.5
 20
509.50000000000011
 30
0.0
 11
-614.5
 21
509.50000000000011
 31
0.0
  0
LINE
  5
4AA
  8
DATA
  6
CONTINUOUS
 62
     7
 10
-634.75000000000045
 20
507.00000000000051
 30
0.0
 11
-615.24999999999989
 21
507.00000000000051
 31
0.0
  0
LINE
  5
4AB
  8
DATA
  6
CONTINUOUS
 62
     7
 10
-635.5
 20
512.22641096981715
 30
0.0
 11
-635.5
 21
509.50000000000011
 31
0.0
  0
LINE
  5
4AC
  8
DATA
  6
CONTINUOUS
 62
     7
 10
-634.75000000000045
 20
498.00000000000023
 30
0.0
 11
-634.75000000000045
 21
507.00000000000051
 31
0.0
  0
LINE
  5
4AD
  8
DATA
  6
CONTINUOUS
 62
     7
 10
-634.49999999999989
 20
507.00000000000051
 30
0.0
 11
-634.49999999999989
 21
509.50000000000011
 31
0.0
  0
LINE
  5
4AE
  8
DATA
  6
CONTINUOUS
 62
     7
 10
-629.875
 20
498.00000000000023
 30
0.0
 11
-629.875
 21
507.00000000000051
 31
0.0
  0
LINE
  5
4AF
  8
DATA
  6
CONTINUOUS
 62
     7
 10
-620.12499999999989
 20
498.00000000000023
 30
0.0
 11
-620.12499999999989
 21
507.00000000000051
 31
0.0
  0
LINE
  5
4B0
  8
DATA
  6
CONTINUOUS
 62
     7
 10
-615.5
 20
507.00000000000051
 30
0.0
 11
-615.5
 21
509.50000000000011
 31
0.0
  0
LINE
  5
4B1
  8
DATA
  6
CONTINUOUS
 62
     7
 10
-614.5
 20
509.50000000000011
 30
0.0
 11
-614.5
 21
512.22641096981715
 31
0.0
  0
LINE
  5
4B2
  8
DATA
  6
CONTINUOUS
 62
     7
 10
-615.24999999999989
 20
498.0
 30
0.0
 11
-615.24999999999989
 21
507.00000000000051
 31
0.0
  0
ARC
  5
4B3
  8
DATA
  6
CONTINUOUS
 62
     7
 10
-625.0
 20
587.75000000000114
 30
0.0
 40
76.250000000000838
 50
245.50762136313239
 51
294.49237863686687
  0
LINE
  5
4B4
  8
DATA
  6
CONTINUOUS
 62
     7
 10
-633.75
 20
512.00371296228491
 30
0.0
 11
-633.75
 21
519.00000000000011
 31
0.0
  0
LINE
  5
4B5
  8
DATA
  6
CONTINUOUS
 62
     7
 10
-616.25
 20
512.00371296228491
 30
0.0
 11
-616.25
 21
519.00000000000011
 31
0.0
  0
LINE
  5
4B6
  8
DATA
  6
CONTINUOUS
 62
     7
 10
-390.0
 20
392.00000000000023
 30
0.0
 11
-390.0
 21
308.0
 31
0.0
  0
LINE
  5
4B7
  8
DATA
  6
CONTINUOUS
 62
     7
 10
-392.5
 20
389.75695975450202
 30
0.0
 11
-392.5
 21
310.2430402454977
 31
0.0
  0
LINE
  5
4B8
  8
DATA
  6
CONTINUOUS
 62
     7
 10
-456.46615312498568
 20
392.50000000000051
 30
0.0
 11
-431.49392195633561
 21
360.38708224791822
 31
0.0
  0
LINE
  5
4B9
  8
DATA
  6
CONTINUOUS
 62
     7
 10
-457.5
 20
389.75695975450202
 30
0.0
 11
-433.4674359954177
 21
358.85240236678771
 31
0.0
  0
LINE
  5
4BA
  8
DATA
  6
CONTINUOUS
 62
     7
 10
-460.0
 20
392.00000000000023
 30
0.0
 11
-460.0
 21
308.0
 31
0.0
  0
LINE
  5
4BB
  8
DATA
  6
CONTINUOUS
 62
     7
 10
-457.5
 20
389.75695975450202
 30
0.0
 11
-457.5
 21
310.2430402454977
 31
0.0
  0
LINE
  5
4BC
  8
DATA
  6
CONTINUOUS
 62
     7
 10
-393.5338468750146
 20
392.50000000000051
 30
0.0
 11
-418.50607804366422
 21
360.38708224791822
 31
0.0
  0
LINE
  5
4BD
  8
DATA
  6
CONTINUOUS
 62
     7
 10
-392.5
 20
389.75695975450202
 30
0.0
 11
-416.53256400458258
 21
358.85240236678771
 31
0.0
  0
LINE
  5
4BE
  8
DATA
  6
CONTINUOUS
 62
     7
 10
-412.75
 20
315.5
 30
0.0
 11
-412.75
 21
307.5
 31
0.0
  0
ARC
  5
4BF
  8
DATA
  6
CONTINUOUS
 62
     7
 10
-397.80487804878021
 20
350.00000000000068
 30
0.0
 40
12.44512195122053
 50
100.1592157200317
 51
259.84078427997042
  0
CIRCLE
  5
4C0
  8
DATA
  6
CONTINUOUS
 62
     7
 10
-400.0
 20
350.0
 30
0.0
 40
3.5999999999999082
  0
ARC
  5
4C1
  8
DATA
  6
CONTINUOUS
 62
     7
 10
-425.0
 20
350.0
 30
0.0
 40
15.00000000000014
 50
7.0452700079039801
 51
47.349808152801756
  0
LINE
  5
4C2
  8
DATA
  6
CONTINUOUS
 62
     7
 10
-400.0
 20
362.25
 30
0.0
 11
-392.5
 21
362.25
 31
0.0
  0
ARC
  5
4C3
  8
DATA
  6
CONTINUOUS
 62
     7
 10
-425.0
 20
350.0
 30
0.0
 40
14.999999999999741
 50
312.6501918471983
 51
352.95472999210023
  0
LINE
  5
4C4
  8
DATA
  6
CONTINUOUS
 62
     7
 10
-400.0
 20
337.75
 30
0.0
 11
-392.5
 21
337.75
 31
0.0
  0
LINE
  5
4C5
  8
DATA
  6
CONTINUOUS
 62
     7
 10
-431.49392195633561
 20
339.61291775208161
 30
0.0
 11
-456.46615312498568
 21
307.49999999999932
 31
0.0
  0
LINE
  5
4C6
  8
DATA
  6
CONTINUOUS
 62
     7
 10
-433.4674359954177
 20
341.14759763321229
 30
0.0
 11
-457.5
 21
310.2430402454977
 31
0.0
  0
LINE
  5
4C7
  8
DATA
  6
CONTINUOUS
 62
     7
 10
-437.25
 20
315.5
 30
0.0
 11
-437.2500000000004
 21
307.5
 31
0.0
  0
ARC
  5
4C8
  8
DATA
  6
CONTINUOUS
 62
     7
 10
-457.00000000000051
 20
308.0
 30
0.0
 40
3.0
 50
180.0
 51
270.0
  0
CIRCLE
  5
4C9
  8
DATA
  6
CONTINUOUS
 62
     7
 10
-450.00000000000051
 20
350.0
 30
0.0
 40
3.5999999999999082
  0
LINE
  5
4CA
  8
DATA
  6
CONTINUOUS
 62
     7
 10
-457.5
 20
362.25
 30
0.0
 11
-450.00000000000051
 21
362.25
 31
0.0
  0
LINE
  5
4CB
  8
DATA
  6
CONTINUOUS
 62
     7
 10
-457.5
 20
337.75
 30
0.0
 11
-450.00000000000051
 21
337.75
 31
0.0
  0
ARC
  5
4CC
  8
DATA
  6
CONTINUOUS
 62
     7
 10
-452.19512195122007
 20
350.00000000000068
 30
0.0
 40
12.44512195122045
 50
280.15921572002958
 51
79.84078427996819
  0
ARC
  5
4CD
  8
DATA
  6
CONTINUOUS
 62
     7
 10
-425.0
 20
350.0
 30
0.0
 40
15.00000000000005
 50
132.65019184719969
 51
172.95472999209599
  0
ARC
  5
4CE
  8
DATA
  6
CONTINUOUS
 62
     7
 10
-425.0
 20
350.0
 30
0.0
 40
15.0
 50
187.04527000789969
 51
227.34980815280019
  0
CIRCLE
  5
4CF
  8
DATA
  6
CONTINUOUS
 62
     7
 10
-425.0
 20
315.5
 30
0.0
 40
3.5999999999999082
  0
ARC
  5
4D0
  8
DATA
  6
CONTINUOUS
 62
     7
 10
-425.0
 20
350.0
 30
0.0
 40
15.0
 50
56.91019184719832
 51
123.08980815280169
  0
CIRCLE
  5
4D1
  8
DATA
  6
CONTINUOUS
 62
     7
 10
-425.0
 20
350.0
 30
0.0
 40
4.75
  0
LINE
  5
4D2
  8
DATA
  6
CONTINUOUS
 62
     7
 10
-425.0
 20
358.99999999999977
 30
0.0
 11
-432.79422863406029
 21
354.5
 31
0.0
  0
LINE
  5
4D3
  8
DATA
  6
CONTINUOUS
 62
     7
 10
-432.79422863406029
 20
345.50000000000023
 30
0.0
 11
-425.0
 21
340.99999999999972
 31
0.0
  0
ARC
  5
4D4
  8
DATA
  6
CONTINUOUS
 62
     7
 10
-425.0
 20
350.0
 30
0.0
 40
15.00000000000019
 50
236.9101918471988
 51
303.08980815279961
  0
LINE
  5
4D5
  8
DATA
  6
CONTINUOUS
 62
     7
 10
-432.79422863406029
 20
354.5
 30
0.0
 11
-432.79422863406029
 21
345.50000000000023
 31
0.0
  0
LINE
  5
4D6
  8
DATA
  6
CONTINUOUS
 62
     7
 10
-417.20577136594011
 20
345.50000000000023
 30
0.0
 11
-417.20577136594011
 21
354.5
 31
0.0
  0
LINE
  5
4D7
  8
DATA
  6
CONTINUOUS
 62
     7
 10
-417.20577136594011
 20
354.5
 30
0.0
 11
-425.0
 21
358.99999999999977
 31
0.0
  0
LINE
  5
4D8
  8
DATA
  6
CONTINUOUS
 62
     7
 10
-425.0
 20
340.99999999999972
 30
0.0
 11
-417.20577136594011
 21
345.50000000000023
 31
0.0
  0
ARC
  5
4D9
  8
DATA
  6
CONTINUOUS
 62
     7
 10
-424.99999999999909
 20
313.3048780487801
 30
0.0
 40
12.44512195122053
 50
10.159215720031719
 51
169.84078427997039
  0
LINE
  5
4DA
  8
DATA
  6
CONTINUOUS
 62
     7
 10
-457.00000000000051
 20
305.0
 30
0.0
 11
-393.0
 21
305.0
 31
0.0
  0
LINE
  5
4DB
  8
DATA
  6
CONTINUOUS
 62
     7
 10
-456.46615312498528
 20
307.5
 30
0.0
 11
-393.53384687501512
 21
307.5
 31
0.0
  0
CIRCLE
  5
4DC
  8
DATA
  6
CONTINUOUS
 62
     7
 10
-425.0
 20
350.0
 30
0.0
 40
12.25
  0
LINE
  5
4DD
  8
DATA
  6
CONTINUOUS
 62
     7
 10
-418.50607804366422
 20
339.61291775208161
 30
0.0
 11
-393.53384687501512
 21
307.49999999999932
 31
0.0
  0
LINE
  5
4DE
  8
DATA
  6
CONTINUOUS
 62
     7
 10
-416.53256400458258
 20
341.14759763321229
 30
0.0
 11
-392.5
 21
310.2430402454977
 31
0.0
  0
ARC
  5
4DF
  8
DATA
  6
CONTINUOUS
 62
     7
 10
-393.0
 20
308.0
 30
0.0
 40
3.0
 50
270.0
 51
0.0
  0
LINE
  5
4E0
  8
DATA
  6
CONTINUOUS
 62
     7
 10
-412.75
 20
392.50000000000051
 30
0.0
 11
-412.75
 21
384.49999999999977
 31
0.0
  0
ARC
  5
4E1
  8
DATA
  6
CONTINUOUS
 62
     7
 10
-457.00000000000051
 20
392.00000000000023
 30
0.0
 40
3.0
 50
90.0
 51
180.0
  0
LINE
  5
4E2
  8
DATA
  6
CONTINUOUS
 62
     7
 10
-437.2500000000004
 20
392.50000000000051
 30
0.0
 11
-437.25
 21
384.49999999999977
 31
0.0
  0
CIRCLE
  5
4E3
  8
DATA
  6
CONTINUOUS
 62
     7
 10
-425.0
 20
384.49999999999977
 30
0.0
 40
3.5999999999999082
  0
LINE
  5
4E4
  8
DATA
  6
CONTINUOUS
 62
     7
 10
-393.0
 20
395.00000000000023
 30
0.0
 11
-457.00000000000051
 21
394.99999999999977
 31
0.0
  0
LINE
  5
4E5
  8
DATA
  6
CONTINUOUS
 62
     7
 10
-456.46615312498528
 20
392.49999999999977
 30
0.0
 11
-393.53384687501512
 21
392.49999999999977
 31
0.0
  0
ARC
  5
4E6
  8
DATA
  6
CONTINUOUS
 62
     7
 10
-424.99999999999909
 20
386.69512195122002
 30
0.0
 40
12.44512195122045
 50
190.15921572002969
 51
349.84078427996809
  0
ARC
  5
4E7
  8
DATA
  6
CONTINUOUS
 62
     7
 10
-393.0
 20
392.00000000000023
 30
0.0
 40
3.0
 50
0.0
 51
90.0
  0
LINE
  5
4E8
  8
DATA
  6
CONTINUOUS
 62
     7
 10
123.9829912
 20
-439.95717249703262
 30
0.0
 11
123.9829911999995
 21
-778.48715170297078
 31
0.0
  0
ARC
  5
4E9
  8
DATA
  6
CONTINUOUS
 62
     7
 10
120.8029911999997
 20
-778.48715170297078
 30
0.0
 40
3.1800000000000441
 50
275.00000266343551
 51
0.0
  0
ARC
  5
4EA
  8
DATA
  6
CONTINUOUS
 62
     7
 10
120.80299120000009
 20
-439.95717249703262
 30
0.0
 40
3.1799999999998358
 50
0.0
 51
84.999997336564547
  0
TEXT
  5
4EB
  8
DATA
 62
     7
 10
525.0
 20
-976.14042611111086
 30
0.0
 40
13.57367621527778
  1
2WAYスピーカ(Control 28の30Wオートトランス内蔵モデル)
 41
0.8
 11
525.0
 21
-962.56674989583303
 31
0.0
 73
     3
  0
TEXT
  5
4EC
  8
DATA
 62
     7
 10
599.99999999999989
 20
-1016.904765
 30
0.0
 40
24.4326171875
  1
CONTROL 28T / 28T-WH
 41
0.8
 11
599.99999999999989
 21
-992.4721478125
 31
0.0
 73
     3
  0
TEXT
  5
4ED
  8
DATA
 62
     7
 10
-671.66666666666674
 20
137.30000000000021
 30
0.0
 40
27.147352430555561
  1
Invisiball取付金具(壁用)
 41
0.8
 11
-671.66666666666674
 21
164.44735243055581
 31
0.0
 73
     3
  0
LINE
  5
4EE
  8
DATA
  6
CONTINUOUS
 62
     7
 10
600.0
 20
-300.0
 30
0.0
 11
950.0
 21
-300.0
 31
0.0
  0
TEXT
  5
4EF
  8
DATA
 62
     7
 10
620.27463807136257
 20
-289.369140625
 30
0.0
 40
23.972702026367191
  1
コネクターパネル拡大図
 41
0.8
 11
620.27463807136257
 21
-265.39643859863281
 31
0.0
 73
     3
  0
LINE
  5
4F0
  8
DATA
  6
CONTINUOUS
 62
     7
 10
822.49999881250039
 20
-616.66665937499977
 30
0.0
 11
822.49999881250108
 21
-658.33332500000006
 31
0.0
  0
LINE
  5
4F1
  8
DATA
  6
CONTINUOUS
 62
     7
 10
727.50000118749983
 20
-616.66665937499977
 30
0.0
 11
727.50000118749983
 21
-658.33332500000006
 31
0.0
  0
LINE
  5
4F2
  8
DATA
  6
CONTINUOUS
 62
     7
 10
826.66649870833839
 20
-641.6666587499999
 30
0.0
 11
822.49999881250039
 21
-616.66665937499977
 31
0.0
  0
LINE
  5
4F3
  8
DATA
  6
CONTINUOUS
 62
     7
 10
818.33349891666364
 20
-641.6666587499999
 30
0.0
 11
822.49999881250039
 21
-616.66665937499977
 31
0.0
  0
LINE
  5
4F4
  8
DATA
  6
CONTINUOUS
 62
     7
 10
731.66650108333783
 20
-641.6666587499999
 30
0.0
 11
727.50000118749983
 21
-616.66665937499977
 31
0.0
  0
LINE
  5
4F5
  8
DATA
  6
CONTINUOUS
 62
     7
 10
723.3335012916632
 20
-641.6666587499999
 30
0.0
 11
727.50000118749983
 21
-616.66665937499977
 31
0.0
  0
TEXT
  5
4F6
  8
DATA
 62
     7
 10
794.63529812321121
 20
-702.01415073089572
 30
0.0
 40
25.832652399837968
  1
RED
 41
0.8
 11
794.63529812321121
 21
-676.1814983310577
 31
0.0
 73
     3
  0
TEXT
  5
4F7
  8
DATA
 62
     7
 10
701.49294721083004
 20
-702.01415073089572
 30
0.0
 40
25.832652399837968
  1
BLK
 41
0.8
 11
701.49294721083004
 21
-676.1814983310577
 31
0.0
 73
     3
  0
CIRCLE
  5
4F8
  8
DATA
  6
CONTINUOUS
 62
     7
 10
885.00000000000034
 20
-576.2499999999992
 30
0.0
 40
13.75
  0
ARC
  5
4F9
  8
DATA
  6
CONTINUOUS
 62
     7
 10
895.0
 20
-587.49999999999875
 30
0.0
 40
20.0
 50
270.0
 51
0.0
  0
CIRCLE
  5
4FA
  8
DATA
  6
CONTINUOUS
 62
     7
 10
885.00000000000034
 20
-356.24999999999977
 30
0.0
 40
13.75
  0
ARC
  5
4FB
  8
DATA
  6
CONTINUOUS
 62
     7
 10
895.0
 20
-344.99999999999932
 30
0.0
 40
20.0
 50
0.0
 51
90.0
  0
CIRCLE
  5
4FC
  8
DATA
  6
CONTINUOUS
 62
     7
 10
822.49999999999955
 20
-576.24999999999841
 30
0.0
 40
12.5
  0
LINE
  5
4FD
  8
DATA
  6
CONTINUOUS
 62
     7
 10
665.0
 20
-586.24999999999909
 30
0.0
 11
665.0
 21
-566.24999999999852
 31
0.0
  0
CIRCLE
  5
4FE
  8
DATA
  6
CONTINUOUS
 62
     7
 10
665.0
 20
-576.2499999999992
 30
0.0
 40
13.75
  0
LINE
  5
4FF
  8
DATA
  6
CONTINUOUS
 62
     7
 10
634.9999999999992
 20
-587.49999999999875
 30
0.0
 11
635.0000000000008
 21
-345.00000000000023
 31
0.0
  0
CIRCLE
  5
500
  8
DATA
  6
CONTINUOUS
 62
     7
 10
727.5
 20
-576.2499999999992
 30
0.0
 40
12.5
  0
LINE
  5
501
  8
DATA
  6
CONTINUOUS
 62
     7
 10
822.49999999999955
 20
-584.99999999999841
 30
0.0
 11
822.49999999999955
 21
-567.49999999999909
 31
0.0
  0
LINE
  5
502
  8
DATA
  6
CONTINUOUS
 62
     7
 10
885.00000000000034
 20
-586.24999999999909
 30
0.0
 11
885.00000000000034
 21
-566.24999999999852
 31
0.0
  0
LINE
  5
503
  8
DATA
  6
CONTINUOUS
 62
     7
 10
654.99999999999966
 20
-607.4999999999992
 30
0.0
 11
895.0
 21
-607.4999999999992
 31
0.0
  0
ARC
  5
504
  8
DATA
  6
CONTINUOUS
 62
     7
 10
654.99999999999966
 20
-587.49999999999875
 30
0.0
 40
20.0
 50
180.0
 51
270.0
  0
LINE
  5
505
  8
DATA
  6
CONTINUOUS
 62
     7
 10
861.24999999999909
 20
-423.7499999999996
 30
0.0
 11
783.75000000000034
 21
-423.7499999999996
 31
0.0
  0
LINE
  5
506
  8
DATA
  6
CONTINUOUS
 62
     7
 10
783.75000000000034
 20
-388.75000000000023
 30
0.0
 11
861.24999999999909
 21
-388.75000000000023
 31
0.0
  0
LINE
  5
507
  8
DATA
  6
CONTINUOUS
 62
     7
 10
793.75
 20
-481.24999999999841
 30
0.0
 11
851.25000000000023
 21
-481.24999999999841
 31
0.0
  0
LINE
  5
508
  8
DATA
  6
CONTINUOUS
 62
     7
 10
793.75
 20
-491.2499999999992
 30
0.0
 11
851.25000000000023
 21
-491.24999999999841
 31
0.0
  0
LINE
  5
509
  8
DATA
  6
CONTINUOUS
 62
     7
 10
793.75
 20
-498.74999999999977
 30
0.0
 11
851.25000000000023
 21
-498.74999999999892
 31
0.0
  0
LINE
  5
50A
  8
DATA
  6
CONTINUOUS
 62
     7
 10
681.25000000000057
 20
-426.24999999999972
 30
0.0
 11
868.74999999999955
 21
-426.24999999999972
 31
0.0
  0
LINE
  5
50B
  8
DATA
  6
CONTINUOUS
 62
     7
 10
681.25000000000057
 20
-386.24999999999977
 30
0.0
 11
868.74999999999955
 21
-386.24999999999977
 31
0.0
  0
LINE
  5
50C
  8
DATA
  6
CONTINUOUS
 62
     7
 10
655.00000000000057
 20
-325.00000000000068
 30
0.0
 11
895.0
 21
-324.99999999999972
 31
0.0
  0
LINE
  5
50D
  8
DATA
  6
CONTINUOUS
 62
     7
 10
681.25000000000057
 20
-516.24999999999875
 30
0.0
 11
868.74999999999955
 21
-516.24999999999875
 31
0.0
  0
LINE
  5
50E
  8
DATA
  6
CONTINUOUS
 62
     7
 10
868.74999999999955
 20
-546.2499999999992
 30
0.0
 11
681.25000000000057
 21
-546.2499999999992
 31
0.0
  0
LINE
  5
50F
  8
DATA
  6
CONTINUOUS
 62
     7
 10
832.49999999999955
 20
-416.2499999999992
 30
0.0
 11
812.4999999999992
 21
-416.2499999999992
 31
0.0
  0
LINE
  5
510
  8
DATA
  6
CONTINUOUS
 62
     7
 10
812.4999999999992
 20
-396.24999999999977
 30
0.0
 11
832.49999999999955
 21
-396.24999999999977
 31
0.0
  0
LINE
  5
511
  8
DATA
  6
CONTINUOUS
 62
     7
 10
813.74999999999989
 20
-576.24999999999841
 30
0.0
 11
831.25
 21
-576.24999999999841
 31
0.0
  0
LINE
  5
512
  8
DATA
  6
CONTINUOUS
 62
     7
 10
783.75000000000034
 20
-423.7499999999996
 30
0.0
 11
783.75000000000034
 21
-388.75000000000023
 31
0.0
  0
LINE
  5
513
  8
DATA
  6
CONTINUOUS
 62
     7
 10
812.4999999999992
 20
-416.2499999999992
 30
0.0
 11
812.4999999999992
 21
-396.24999999999977
 31
0.0
  0
LINE
  5
514
  8
DATA
  6
CONTINUOUS
 62
     7
 10
766.24999999999955
 20
-388.75000000000023
 30
0.0
 11
766.24999999999955
 21
-423.7499999999996
 31
0.0
  0
LINE
  5
515
  8
DATA
  6
CONTINUOUS
 62
     7
 10
737.4999999999992
 20
-396.24999999999977
 30
0.0
 11
737.4999999999992
 21
-416.2499999999992
 31
0.0
  0
TEXT
  5
516
  8
DATA
 62
     7
 10
735.68066010364612
 20
-543.18359374999932
 30
0.0
 40
24.799346923828121
  1
INPUT
 41
0.8
 11
735.68066010364612
 21
-518.38424682617119
 31
0.0
 73
     3
  0
LINE
  5
517
  8
DATA
  6
CONTINUOUS
 62
     7
 10
793.75
 20
-426.24999999999972
 30
0.0
 11
793.75000000000125
 21
-516.24999999999875
 31
0.0
  0
LINE
  5
518
  8
DATA
  6
CONTINUOUS
 62
     7
 10
756.24999999999955
 20
-516.24999999999875
 30
0.0
 11
756.24999999999955
 21
-426.24999999999972
 31
0.0
  0
LINE
  5
519
  8
DATA
  6
CONTINUOUS
 62
     7
 10
688.75
 20
-423.7499999999996
 30
0.0
 11
688.75
 21
-388.75000000000023
 31
0.0
  0
LINE
  5
51A
  8
DATA
  6
CONTINUOUS
 62
     7
 10
717.49999999999852
 20
-416.2499999999992
 30
0.0
 11
717.49999999999852
 21
-396.24999999999977
 31
0.0
  0
LINE
  5
51B
  8
DATA
  6
CONTINUOUS
 62
     7
 10
665.0
 20
-366.2499999999992
 30
0.0
 11
665.0
 21
-346.25
 31
0.0
  0
LINE
  5
51C
  8
DATA
  6
CONTINUOUS
 62
     7
 10
655.00000000000057
 20
-356.24999999999977
 30
0.0
 11
675.0
 21
-356.24999999999977
 31
0.0
  0
CIRCLE
  5
51D
  8
DATA
  6
CONTINUOUS
 62
     7
 10
665.0
 20
-356.24999999999977
 30
0.0
 40
13.75
  0
ARC
  5
51E
  8
DATA
  6
CONTINUOUS
 62
     7
 10
655.00000000000057
 20
-345.00000000000023
 30
0.0
 40
20.0
 50
90.0
 51
180.0
  0
LINE
  5
51F
  8
DATA
  6
CONTINUOUS
 62
     7
 10
655.00000000000057
 20
-576.2499999999992
 30
0.0
 11
675.0
 21
-576.2499999999992
 31
0.0
  0
LINE
  5
520
  8
DATA
  6
CONTINUOUS
 62
     7
 10
698.75000000000045
 20
-426.24999999999972
 30
0.0
 11
698.75000000000045
 21
-516.24999999999875
 31
0.0
  0
LINE
  5
521
  8
DATA
  6
CONTINUOUS
 62
     7
 10
681.25000000000057
 20
-546.2499999999992
 30
0.0
 11
681.25000000000057
 21
-386.24999999999977
 31
0.0
  0
LINE
  5
522
  8
DATA
  6
CONTINUOUS
 62
     7
 10
766.24999999999955
 20
-423.7499999999996
 30
0.0
 11
688.75
 21
-423.7499999999996
 31
0.0
  0
LINE
  5
523
  8
DATA
  6
CONTINUOUS
 62
     7
 10
688.75
 20
-388.75000000000023
 30
0.0
 11
766.24999999999955
 21
-388.75000000000023
 31
0.0
  0
LINE
  5
524
  8
DATA
  6
CONTINUOUS
 62
     7
 10
737.4999999999992
 20
-416.2499999999992
 30
0.0
 11
717.49999999999852
 21
-416.2499999999992
 31
0.0
  0
LINE
  5
525
  8
DATA
  6
CONTINUOUS
 62
     7
 10
717.49999999999852
 20
-396.24999999999977
 30
0.0
 11
737.4999999999992
 21
-396.24999999999977
 31
0.0
  0
LINE
  5
526
  8
DATA
  6
CONTINUOUS
 62
     7
 10
718.7500000000008
 20
-576.2499999999992
 30
0.0
 11
736.24999999999909
 21
-576.2499999999992
 31
0.0
  0
LINE
  5
527
  8
DATA
  6
CONTINUOUS
 62
     7
 10
698.75000000000045
 20
-481.24999999999841
 30
0.0
 11
756.24999999999955
 21
-481.24999999999841
 31
0.0
  0
LINE
  5
528
  8
DATA
  6
CONTINUOUS
 62
     7
 10
698.75000000000045
 20
-491.2499999999992
 30
0.0
 11
756.24999999999955
 21
-491.24999999999841
 31
0.0
  0
LINE
  5
529
  8
DATA
  6
CONTINUOUS
 62
     7
 10
698.75000000000045
 20
-498.74999999999977
 30
0.0
 11
756.24999999999955
 21
-498.74999999999892
 31
0.0
  0
LINE
  5
52A
  8
DATA
  6
CONTINUOUS
 62
     7
 10
832.49999999999955
 20
-396.24999999999977
 30
0.0
 11
832.49999999999955
 21
-416.2499999999992
 31
0.0
  0
LINE
  5
52B
  8
DATA
  6
CONTINUOUS
 62
     7
 10
885.00000000000034
 20
-366.2499999999992
 30
0.0
 11
885.00000000000034
 21
-346.25
 31
0.0
  0
LINE
  5
52C
  8
DATA
  6
CONTINUOUS
 62
     7
 10
875.00000000000102
 20
-356.24999999999977
 30
0.0
 11
895.00000000000023
 21
-356.24999999999977
 31
0.0
  0
LINE
  5
52D
  8
DATA
  6
CONTINUOUS
 62
     7
 10
861.24999999999909
 20
-388.75000000000023
 30
0.0
 11
861.24999999999909
 21
-423.7499999999996
 31
0.0
  0
LINE
  5
52E
  8
DATA
  6
CONTINUOUS
 62
     7
 10
875.00000000000102
 20
-576.2499999999992
 30
0.0
 11
895.00000000000023
 21
-576.2499999999992
 31
0.0
  0
LINE
  5
52F
  8
DATA
  6
CONTINUOUS
 62
     7
 10
868.74999999999955
 20
-386.24999999999977
 30
0.0
 11
868.74999999999955
 21
-546.2499999999992
 31
0.0
  0
LINE
  5
530
  8
DATA
  6
CONTINUOUS
 62
     7
 10
851.2499999999992
 20
-516.24999999999875
 30
0.0
 11
851.2499999999992
 21
-426.24999999999972
 31
0.0
  0
LINE
  5
531
  8
DATA
  6
CONTINUOUS
 62
     7
 10
914.99999999999909
 20
-587.49999999999875
 30
0.0
 11
914.99999999999909
 21
-344.99999999999932
 31
0.0
  0
LINE
  5
532
  8
DATA
  6
CONTINUOUS
 62
     7
 10
250.0
 20
-796.8249999999997
 30
0.0
 11
250.0
 21
-421.61934960000031
 31
0.0
  0
LINE
  5
533
  8
DATA
  6
CONTINUOUS
 62
     7
 10
529.39999999999975
 20
-796.82000000000005
 30
0.0
 11
529.39999999999975
 21
-421.62434960000002
 31
0.0
  0
LINE
  5
534
  8
DATA
  6
CONTINUOUS
 62
     7
 10
320.48249999999922
 20
-437.04323949963077
 30
0.0
 11
320.48249999999962
 21
-781.40108470037262
 31
0.0
  0
LINE
  5
535
  8
DATA
  6
CONTINUOUS
 62
     7
 10
458.91249999999991
 20
-781.40108470037262
 30
0.0
 11
458.91249999999991
 21
-437.04323949963077
 31
0.0
  0
LINE
  5
536
  8
DATA
  6
CONTINUOUS
 62
     7
 10
348.19749999999982
 20
-660.40108470037273
 30
0.0
 11
348.19749999999982
 21
-557.40108470037273
 31
0.0
  0
LINE
  5
537
  8
DATA
  6
CONTINUOUS
 62
     7
 10
431.19749999999971
 20
-660.40108470037273
 30
0.0
 11
431.19749999999971
 21
-557.40108470037273
 31
0.0
  0
CIRCLE
  5
538
  8
DATA
  6
CONTINUOUS
 62
     7
 10
389.69749999999971
 20
-608.90108470037273
 30
0.0
 40
20.5
  0
CIRCLE
  5
539
  8
DATA
  6
CONTINUOUS
 62
     7
 10
389.69749999999971
 20
-608.90108470037273
 30
0.0
 40
18.0
  0
LINE
  5
53A
  8
DATA
  6
CONTINUOUS
 62
     7
 10
253.1749999999993
 20
-800.0
 30
0.0
 11
526.2199999999998
 21
-800.00000000000034
 31
0.0
  0
LINE
  5
53B
  8
DATA
  6
CONTINUOUS
 62
     7
 10
320.48249999999962
 20
-781.40108470037262
 30
0.0
 11
458.91249999999991
 21
-781.40108470037262
 31
0.0
  0
ARC
  5
53C
  8
DATA
  6
CONTINUOUS
 62
     7
 10
253.1749999999993
 20
-796.8249999999997
 30
0.0
 40
3.1749999999997272
 50
180.0
 51
270.0
  0
LINE
  5
53D
  8
DATA
  6
CONTINUOUS
 62
     7
 10
250.9299359697325
 20
-799.07003863027035
 30
0.0
 11
320.48249999999922
 21
-781.40108470037262
 31
0.0
  0
LINE
  5
53E
  8
DATA
  6
CONTINUOUS
 62
     7
 10
361.1975000000001
 20
-714.40108470037273
 30
0.0
 11
418.19749999999971
 21
-714.40108470037273
 31
0.0
  0
LINE
  5
53F
  8
DATA
  6
CONTINUOUS
 62
     7
 10
361.1975000000001
 20
-713.40108470037273
 30
0.0
 11
418.19749999999971
 21
-713.40108470037273
 31
0.0
  0
LINE
  5
540
  8
DATA
  6
CONTINUOUS
 62
     7
 10
361.1975000000001
 20
-761.40108470037262
 30
0.0
 11
418.19749999999971
 21
-761.40108470037262
 31
0.0
  0
LINE
  5
541
  8
DATA
  6
CONTINUOUS
 62
     7
 10
361.1975000000001
 20
-760.40108470037262
 30
0.0
 11
418.19749999999971
 21
-760.40108470037262
 31
0.0
  0
LINE
  5
542
  8
DATA
  6
CONTINUOUS
 62
     7
 10
361.1975000000001
 20
-773.40108470037262
 30
0.0
 11
418.19749999999971
 21
-773.40108470037262
 31
0.0
  0
TEXT
  5
543
  8
DATA
 62
     7
 10
364.19749999999982
 20
-770.85225657537251
 30
0.0
 40
5.7865142822265634
  1
PROFESSIONAL
 41
0.8
 11
364.19749999999982
 21
-765.06574229314595
 31
0.0
 73
     3
  0
LINE
  5
544
  8
DATA
  6
CONTINUOUS
 62
     7
 10
348.19749999999982
 20
-660.40108470037273
 30
0.0
 11
431.19749999999971
 21
-660.40108470037273
 31
0.0
  0
LINE
  5
545
  8
DATA
  6
CONTINUOUS
 62
     7
 10
373.44749999999971
 20
-641.40108470037251
 30
0.0
 11
405.9475000000001
 21
-641.40108470037251
 31
0.0
  0
LINE
  5
546
  8
DATA
  6
CONTINUOUS
 62
     7
 10
373.44749999999971
 20
-647.90108470037273
 30
0.0
 11
405.9475000000001
 21
-647.90108470037251
 31
0.0
  0
ARC
  5
547
  8
DATA
  6
CONTINUOUS
 62
     7
 10
389.69749999999971
 20
-644.65108470037239
 30
0.0
 40
10.000000000000179
 50
18.965574988848221
 51
161.03442501115109
  0
ARC
  5
548
  8
DATA
  6
CONTINUOUS
 62
     7
 10
389.69749999999971
 20
-644.65108470037239
 30
0.0
 40
9.9999999999998241
 50
198.96557498885031
 51
341.03442501115171
  0
LINE
  5
549
  8
DATA
  6
CONTINUOUS
 62
     7
 10
361.1975000000001
 20
-713.40108470037273
 30
0.0
 11
361.1975000000001
 21
-701.40108470037273
 31
0.0
  0
LINE
  5
54A
  8
DATA
  6
CONTINUOUS
 62
     7
 10
361.1975000000001
 20
-773.40108470037262
 30
0.0
 11
361.1975000000001
 21
-761.40108470037262
 31
0.0
  0
LINE
  5
54B
  8
DATA
  6
CONTINUOUS
 62
     7
 10
361.1975000000001
 20
-760.40108470037262
 30
0.0
 11
361.1975000000001
 21
-714.40108470037273
 31
0.0
  0
TEXT
  5
54C
  8
DATA
 62
     7
 10
364.19749999999982
 20
-710.85225657537262
 30
0.0
 40
5.7865142822265634
  1
CONTROL
 41
0.8
 11
364.19749999999982
 21
-705.06574229314595
 31
0.0
 73
     3
  0
LINE
  5
54D
  8
DATA
  6
CONTINUOUS
 62
     7
 10
373.44749999999971
 20
-647.90108470037273
 30
0.0
 11
373.44749999999971
 21
-641.40108470037251
 31
0.0
  0
LINE
  5
54E
  8
DATA
  6
CONTINUOUS
 62
     7
 10
418.19749999999971
 20
-713.40108470037273
 30
0.0
 11
418.19749999999971
 21
-701.40108470037273
 31
0.0
  0
LINE
  5
54F
  8
DATA
  6
CONTINUOUS
 62
     7
 10
418.19749999999971
 20
-773.40108470037262
 30
0.0
 11
418.19749999999971
 21
-761.40108470037262
 31
0.0
  0
LINE
  5
550
  8
DATA
  6
CONTINUOUS
 62
     7
 10
418.19749999999971
 20
-760.40108470037262
 30
0.0
 11
418.19749999999971
 21
-714.40108470037273
 31
0.0
  0
TEXT
  5
551
  8
DATA
 62
     7
 10
407.27340927104621
 20
-710.85225657537262
 30
0.0
 40
5.7865142822265634
  1
28
 41
0.8
 11
407.27340927104621
 21
-705.06574229314595
 31
0.0
 73
     3
  0
LINE
  5
552
  8
DATA
  6
CONTINUOUS
 62
     7
 10
405.9475000000001
 20
-647.90108470037273
 30
0.0
 11
405.9475000000001
 21
-641.40108470037251
 31
0.0
  0
ARC
  5
553
  8
DATA
  6
CONTINUOUS
 62
     7
 10
526.2199999999998
 20
-796.82000000000005
 30
0.0
 40
3.1799999999998358
 50
270.0
 51
0.0
  0
LINE
  5
554
  8
DATA
  6
CONTINUOUS
 62
     7
 10
528.4650640302674
 20
-799.07003863027035
 30
0.0
 11
458.91250000000031
 21
-781.40108470037262
 31
0.0
  0
CIRCLE
  5
555
  8
DATA
  6
CONTINUOUS
 62
     7
 10
389.69749999999971
 20
-697.90108470037273
 30
0.0
 40
10.0
  0
LINE
  5
556
  8
DATA
  6
CONTINUOUS
 62
     7
 10
389.69749999999971
 20
-700.90108470037228
 30
0.0
 11
389.69749999999971
 21
-701.90108470037273
 31
0.0
  0
LINE
  5
557
  8
DATA
  6
CONTINUOUS
 62
     7
 10
388.19749999999971
 20
-700.49916091172588
 30
0.0
 11
387.69749999999982
 21
-701.36518631551041
 31
0.0
  0
TEXT
  5
558
  8
DATA
 62
     7
 10
386.09256379828861
 20
-701.14152704096421
 30
0.0
 40
3.30657958984375
  1
3
 50
120.0
 41
0.8
 11
383.2289818738488
 21
-702.79481683588608
 31
0.0
 73
     3
  0
LINE
  5
559
  8
DATA
  6
CONTINUOUS
 62
     7
 10
396.76856781186552
 20
-704.97215251223815
 30
0.0
 11
391.8188203435592
 21
-700.02240504393205
 31
0.0
  0
TEXT
  5
55A
  8
DATA
 62
     7
 10
388.19575484059169
 20
-702.50985818767958
 30
0.0
 40
3.30657958984375
  1
2
 50
150.0
 41
0.8
 11
386.54246504566981
 21
-705.3734401121194
 31
0.0
 73
     3
  0
CIRCLE
  5
55B
  8
DATA
  6
CONTINUOUS
 62
     7
 10
389.69749999999971
 20
-697.90108470037273
 30
0.0
 40
3.0
  0
LINE
  5
55C
  8
DATA
  6
CONTINUOUS
 62
     7
 10
385.69749999999982
 20
-697.90108470037273
 30
0.0
 11
386.69749999999982
 21
-697.90108470037273
 31
0.0
  0
CIRCLE
  5
55D
  8
DATA
  6
CONTINUOUS
 62
     7
 10
393.19749999999982
 20
-697.90108470037273
 30
0.0
 40
0.5
  0
LINE
  5
55E
  8
DATA
  6
CONTINUOUS
 62
     7
 10
392.29557621135291
 20
-696.40108470037273
 30
0.0
 11
393.16160161513739
 21
-695.90108470037228
 31
0.0
  0
LINE
  5
55F
  8
DATA
  6
CONTINUOUS
 62
     7
 10
391.19749999999982
 20
-695.30300848901913
 30
0.0
 11
391.69749999999982
 21
-694.4369830852346
 31
0.0
  0
LINE
  5
560
  8
DATA
  6
CONTINUOUS
 62
     7
 10
389.69749999999971
 20
-694.90108470037273
 30
0.0
 11
389.69749999999971
 21
-693.90108470037273
 31
0.0
  0
LINE
  5
561
  8
DATA
  6
CONTINUOUS
 62
     7
 10
387.09942378864662
 20
-699.40108470037273
 30
0.0
 11
386.23339838486208
 21
-699.90108470037228
 31
0.0
  0
LINE
  5
562
  8
DATA
  6
CONTINUOUS
 62
     7
 10
387.57617965644022
 20
-695.77976435681273
 30
0.0
 11
382.62643218813452
 21
-690.83001688850698
 31
0.0
  0
TEXT
  5
563
  8
DATA
 62
     7
 10
388.63282409103431
 20
-693.15889720037228
 30
0.0
 40
3.30657958984375
  1
1
 41
0.8
 11
388.63282409103431
 21
-689.85231761052853
 31
0.0
 73
     3
  0
TEXT
  5
564
  8
DATA
 62
     7
 10
384.95531250000022
 20
-698.90492198596826
 30
0.0
 40
3.30657958984375
  1
4
 50
90.0
 41
0.8
 11
381.64873291015653
 21
-698.90492198596826
 31
0.0
 73
     3
  0
TEXT
  5
565
  8
DATA
 62
     7
 10
391.19924515940778
 20
-693.29231121306589
 30
0.0
 40
3.30657958984375
  1
2
 50
330.00000000000011
 41
0.8
 11
392.85253495432971
 21
-690.42872928862607
 31
0.0
 73
     3
  0
TEXT
  5
566
  8
DATA
 62
     7
 10
393.30243620171109
 20
-694.66064235978115
 30
0.0
 40
3.30657958984375
  1
3
 50
300.0
 41
0.8
 11
396.1660181261509
 21
-693.00735256485927
 31
0.0
 73
     3
  0
TEXT
  5
567
  8
DATA
 62
     7
 10
384.690885313134
 20
-691.94165297571351
 30
0.0
 40
1.653289794921875
  1
100V
 50
30.0
 41
0.8
 11
383.86424041567312
 21
-690.5098620134936
 31
0.0
 73
     3
  0
TEXT
  5
568
  8
DATA
 62
     7
 10
390.7013372855954
 20
-702.64327220037273
 30
0.0
 40
3.30657958984375
  1
1
 50
180.0
 41
0.8
 11
390.7013372855954
 21
-705.94985179021648
 31
0.0
 73
     3
  0
TEXT
  5
569
  8
DATA
 62
     7
 10
394.70411468686513
 20
-703.86051642503139
 30
0.0
 40
1.653289794921875
  1
70V
 50
210.00000000000011
 41
0.8
 11
395.53075958432601
 21
-705.2923073872513
 31
0.0
 73
     3
  0
LINE
  5
56A
  8
DATA
  6
CONTINUOUS
 62
     7
 10
361.1975000000001
 20
-701.40108470037273
 30
0.0
 11
380.3300030024019
 21
-701.40108470037273
 31
0.0
  0
LINE
  5
56B
  8
DATA
  6
CONTINUOUS
 62
     7
 10
399.06499699759752
 20
-701.40108470037273
 30
0.0
 11
418.19749999999971
 21
-701.40108470037273
 31
0.0
  0
LINE
  5
56C
  8
DATA
  6
CONTINUOUS
 62
     7
 10
253.1749999999993
 20
-418.44434960000012
 30
0.0
 11
526.2199999999998
 21
-418.44434960000012
 31
0.0
  0
LINE
  5
56D
  8
DATA
  6
CONTINUOUS
 62
     7
 10
320.48249999999962
 20
-437.04323949963111
 30
0.0
 11
458.91249999999991
 21
-437.04323949963077
 31
0.0
  0
ARC
  5
56E
  8
DATA
  6
CONTINUOUS
 62
     7
 10
253.1749999999993
 20
-421.61934960000031
 30
0.0
 40
3.175000000000181
 50
90.0
 51
180.0
  0
LINE
  5
56F
  8
DATA
  6
CONTINUOUS
 62
     7
 10
250.9299359697325
 20
-419.3742855697331
 30
0.0
 11
320.48249999999922
 21
-437.04323949963077
 31
0.0
  0
LINE
  5
570
  8
DATA
  6
CONTINUOUS
 62
     7
 10
348.19749999999982
 20
-557.40108470037273
 30
0.0
 11
431.19749999999971
 21
-557.40108470037273
 31
0.0
  0
LINE
  5
571
  8
DATA
  6
CONTINUOUS
 62
     7
 10
365.69749999999982
 20
-519.90108470037273
 30
0.0
 11
413.69749999999971
 21
-519.90108470037273
 31
0.0
  0
LINE
  5
572
  8
DATA
  6
CONTINUOUS
 62
     7
 10
365.69749999999982
 20
-518.90108470037273
 30
0.0
 11
413.69749999999971
 21
-518.90108470037273
 31
0.0
  0
LINE
  5
573
  8
DATA
  6
CONTINUOUS
 62
     7
 10
406.94749999999971
 20
-482.15108470037279
 30
0.0
 11
391.44749999999982
 21
-482.15108470037279
 31
0.0
  0
LINE
  5
574
  8
DATA
  6
CONTINUOUS
 62
     7
 10
391.44749999999982
 20
-475.15108470037279
 30
0.0
 11
406.94749999999971
 21
-475.15108470037279
 31
0.0
  0
LINE
  5
575
  8
DATA
  6
CONTINUOUS
 62
     7
 10
393.44750000000022
 20
-493.65108470037268
 30
0.0
 11
404.94749999999971
 21
-493.65108470037268
 31
0.0
  0
LINE
  5
576
  8
DATA
  6
CONTINUOUS
 62
     7
 10
393.44750000000022
 20
-495.65108470037279
 30
0.0
 11
404.94749999999971
 21
-495.65108470037279
 31
0.0
  0
LINE
  5
577
  8
DATA
  6
CONTINUOUS
 62
     7
 10
393.44750000000022
 20
-497.15108470037268
 30
0.0
 11
404.94749999999971
 21
-497.15108470037268
 31
0.0
  0
LINE
  5
578
  8
DATA
  6
CONTINUOUS
 62
     7
 10
370.94749999999982
 20
-482.65108470037291
 30
0.0
 11
408.44749999999971
 21
-482.65108470037291
 31
0.0
  0
LINE
  5
579
  8
DATA
  6
CONTINUOUS
 62
     7
 10
370.94749999999982
 20
-474.65108470037291
 30
0.0
 11
408.44749999999971
 21
-474.65108470037291
 31
0.0
  0
LINE
  5
57A
  8
DATA
  6
CONTINUOUS
 62
     7
 10
365.69749999999982
 20
-461.40108470037268
 30
0.0
 11
413.69749999999971
 21
-461.40108470037268
 31
0.0
  0
LINE
  5
57B
  8
DATA
  6
CONTINUOUS
 62
     7
 10
365.69749999999982
 20
-462.40108470037291
 30
0.0
 11
413.69749999999971
 21
-462.40108470037268
 31
0.0
  0
LINE
  5
57C
  8
DATA
  6
CONTINUOUS
 62
     7
 10
370.94749999999982
 20
-500.65108470037279
 30
0.0
 11
408.44749999999971
 21
-500.65108470037279
 31
0.0
  0
LINE
  5
57D
  8
DATA
  6
CONTINUOUS
 62
     7
 10
408.44749999999971
 20
-506.65108470037268
 30
0.0
 11
370.94749999999982
 21
-506.65108470037268
 31
0.0
  0
CIRCLE
  5
57E
  8
DATA
  6
CONTINUOUS
 62
     7
 10
357.94750000000022
 20
-608.90108470037273
 30
0.0
 40
2.5
  0
LINE
  5
57F
  8
DATA
  6
CONTINUOUS
 62
     7
 10
360.69749999999982
 20
-514.90108470037273
 30
0.0
 11
360.69749999999982
 21
-466.40108470037268
 31
0.0
  0
LINE
  5
580
  8
DATA
  6
CONTINUOUS
 62
     7
 10
361.69749999999982
 20
-514.90108470037273
 30
0.0
 11
361.69749999999982
 21
-466.40108470037291
 31
0.0
  0
LINE
  5
581
  8
DATA
  6
CONTINUOUS
 62
     7
 10
367.69749999999982
 20
-514.65108470037273
 30
0.0
 11
367.69749999999982
 21
-510.65108470037268
 31
0.0
  0
LINE
  5
582
  8
DATA
  6
CONTINUOUS
 62
     7
 10
365.69749999999982
 20
-512.65108470037273
 30
0.0
 11
369.69749999999982
 21
-512.65108470037273
 31
0.0
  0
CIRCLE
  5
583
  8
DATA
  6
CONTINUOUS
 62
     7
 10
367.69749999999982
 20
-512.65108470037273
 30
0.0
 40
2.75
  0
ARC
  5
584
  8
DATA
  6
CONTINUOUS
 62
     7
 10
365.69749999999982
 20
-514.90108470037273
 30
0.0
 40
5.0
 50
180.0
 51
270.0
  0
ARC
  5
585
  8
DATA
  6
CONTINUOUS
 62
     7
 10
365.69749999999982
 20
-514.90108470037273
 30
0.0
 40
4.0
 50
180.0
 51
270.0
  0
LINE
  5
586
  8
DATA
  6
CONTINUOUS
 62
     7
 10
378.44749999999982
 20
-512.65108470037273
 30
0.0
 11
381.94749999999971
 21
-512.65108470037273
 31
0.0
  0
CIRCLE
  5
587
  8
DATA
  6
CONTINUOUS
 62
     7
 10
380.19749999999982
 20
-512.65108470037273
 30
0.0
 40
2.5
  0
LINE
  5
588
  8
DATA
  6
CONTINUOUS
 62
     7
 10
391.44749999999982
 20
-482.15108470037279
 30
0.0
 11
391.44749999999982
 21
-475.15108470037279
 31
0.0
  0
LINE
  5
589
  8
DATA
  6
CONTINUOUS
 62
     7
 10
387.94749999999971
 20
-475.15108470037279
 30
0.0
 11
387.94749999999971
 21
-482.15108470037279
 31
0.0
  0
LINE
  5
58A
  8
DATA
  6
CONTINUOUS
 62
     7
 10
382.19749999999931
 20
-476.65108470037268
 30
0.0
 11
382.19749999999931
 21
-480.65108470037268
 31
0.0
  0
TEXT
  5
58B
  8
DATA
 62
     7
 10
381.833632020729
 20
-506.03780345037268
 30
0.0
 40
4.959869384765625
  1
INPUT
 41
0.8
 11
381.833632020729
 21
-501.07793406560711
 31
0.0
 73
     3
  0
LINE
  5
58C
  8
DATA
  6
CONTINUOUS
 62
     7
 10
393.44750000000022
 20
-482.65108470037291
 30
0.0
 11
393.44750000000022
 21
-500.65108470037279
 31
0.0
  0
LINE
  5
58D
  8
DATA
  6
CONTINUOUS
 62
     7
 10
385.94749999999971
 20
-500.65108470037279
 30
0.0
 11
385.94749999999971
 21
-482.65108470037291
 31
0.0
  0
LINE
  5
58E
  8
DATA
  6
CONTINUOUS
 62
     7
 10
372.44749999999982
 20
-482.15108470037279
 30
0.0
 11
372.44749999999982
 21
-475.15108470037279
 31
0.0
  0
LINE
  5
58F
  8
DATA
  6
CONTINUOUS
 62
     7
 10
378.1974999999992
 20
-480.65108470037268
 30
0.0
 11
378.1974999999992
 21
-476.65108470037268
 31
0.0
  0
LINE
  5
590
  8
DATA
  6
CONTINUOUS
 62
     7
 10
367.69749999999982
 20
-470.65108470037279
 30
0.0
 11
367.69749999999982
 21
-466.65108470037279
 31
0.0
  0
LINE
  5
591
  8
DATA
  6
CONTINUOUS
 62
     7
 10
365.69749999999982
 20
-468.65108470037268
 30
0.0
 11
369.69749999999982
 21
-468.65108470037268
 31
0.0
  0
CIRCLE
  5
592
  8
DATA
  6
CONTINUOUS
 62
     7
 10
367.69749999999982
 20
-468.65108470037268
 30
0.0
 40
2.75
  0
ARC
  5
593
  8
DATA
  6
CONTINUOUS
 62
     7
 10
365.69749999999982
 20
-466.40108470037268
 30
0.0
 40
5.0
 50
90.0
 51
180.0
  0
ARC
  5
594
  8
DATA
  6
CONTINUOUS
 62
     7
 10
365.69749999999982
 20
-466.40108470037291
 30
0.0
 40
4.0
 50
90.0
 51
180.0
  0
LINE
  5
595
  8
DATA
  6
CONTINUOUS
 62
     7
 10
374.44749999999982
 20
-482.65108470037291
 30
0.0
 11
374.44749999999982
 21
-500.65108470037279
 31
0.0
  0
LINE
  5
596
  8
DATA
  6
CONTINUOUS
 62
     7
 10
370.94749999999982
 20
-506.65108470037268
 30
0.0
 11
370.94749999999982
 21
-474.65108470037291
 31
0.0
  0
LINE
  5
597
  8
DATA
  6
CONTINUOUS
 62
     7
 10
387.94749999999971
 20
-482.15108470037279
 30
0.0
 11
372.44749999999982
 21
-482.15108470037279
 31
0.0
  0
LINE
  5
598
  8
DATA
  6
CONTINUOUS
 62
     7
 10
372.44749999999982
 20
-475.15108470037279
 30
0.0
 11
387.94749999999971
 21
-475.15108470037279
 31
0.0
  0
LINE
  5
599
  8
DATA
  6
CONTINUOUS
 62
     7
 10
382.19749999999931
 20
-480.65108470037268
 30
0.0
 11
378.1974999999992
 21
-480.65108470037268
 31
0.0
  0
LINE
  5
59A
  8
DATA
  6
CONTINUOUS
 62
     7
 10
378.1974999999992
 20
-476.65108470037268
 30
0.0
 11
382.19749999999931
 21
-476.65108470037268
 31
0.0
  0
LINE
  5
59B
  8
DATA
  6
CONTINUOUS
 62
     7
 10
374.44749999999982
 20
-493.65108470037268
 30
0.0
 11
385.94749999999971
 21
-493.65108470037268
 31
0.0
  0
LINE
  5
59C
  8
DATA
  6
CONTINUOUS
 62
     7
 10
374.44749999999982
 20
-495.65108470037279
 30
0.0
 11
385.94749999999971
 21
-495.65108470037279
 31
0.0
  0
LINE
  5
59D
  8
DATA
  6
CONTINUOUS
 62
     7
 10
374.44749999999982
 20
-497.15108470037268
 30
0.0
 11
385.94749999999971
 21
-497.15108470037268
 31
0.0
  0
CIRCLE
  5
59E
  8
DATA
  6
CONTINUOUS
 62
     7
 10
421.44749999999971
 20
-608.90108470037273
 30
0.0
 40
2.5
  0
LINE
  5
59F
  8
DATA
  6
CONTINUOUS
 62
     7
 10
418.69749999999971
 20
-514.90108470037273
 30
0.0
 11
418.69749999999971
 21
-466.40108470037268
 31
0.0
  0
LINE
  5
5A0
  8
DATA
  6
CONTINUOUS
 62
     7
 10
417.69749999999971
 20
-514.90108470037273
 30
0.0
 11
417.69749999999971
 21
-466.40108470037268
 31
0.0
  0
LINE
  5
5A1
  8
DATA
  6
CONTINUOUS
 62
     7
 10
399.19749999999982
 20
-514.40108470037251
 30
0.0
 11
399.19749999999982
 21
-510.90108470037279
 31
0.0
  0
LINE
  5
5A2
  8
DATA
  6
CONTINUOUS
 62
     7
 10
397.44750000000022
 20
-512.65108470037273
 30
0.0
 11
400.94749999999971
 21
-512.65108470037273
 31
0.0
  0
CIRCLE
  5
5A3
  8
DATA
  6
CONTINUOUS
 62
     7
 10
399.19749999999982
 20
-512.65108470037273
 30
0.0
 40
2.5
  0
LINE
  5
5A4
  8
DATA
  6
CONTINUOUS
 62
     7
 10
411.6975000000001
 20
-514.65108470037273
 30
0.0
 11
411.6975000000001
 21
-510.65108470037268
 31
0.0
  0
LINE
  5
5A5
  8
DATA
  6
CONTINUOUS
 62
     7
 10
409.69749999999971
 20
-512.65108470037273
 30
0.0
 11
413.69749999999971
 21
-512.65108470037273
 31
0.0
  0
CIRCLE
  5
5A6
  8
DATA
  6
CONTINUOUS
 62
     7
 10
411.6975000000001
 20
-512.65108470037273
 30
0.0
 40
2.75
  0
ARC
  5
5A7
  8
DATA
  6
CONTINUOUS
 62
     7
 10
413.69749999999971
 20
-514.90108470037273
 30
0.0
 40
5.0
 50
270.0
 51
0.0
  0
ARC
  5
5A8
  8
DATA
  6
CONTINUOUS
 62
     7
 10
413.69749999999971
 20
-514.90108470037273
 30
0.0
 40
4.0
 50
270.0
 51
0.0
  0
LINE
  5
5A9
  8
DATA
  6
CONTINUOUS
 62
     7
 10
401.19749999999971
 20
-480.65108470037268
 30
0.0
 11
397.19749999999982
 21
-480.65108470037268
 31
0.0
  0
LINE
  5
5AA
  8
DATA
  6
CONTINUOUS
 62
     7
 10
401.19749999999971
 20
-476.65108470037268
 30
0.0
 11
401.19749999999971
 21
-480.65108470037268
 31
0.0
  0
LINE
  5
5AB
  8
DATA
  6
CONTINUOUS
 62
     7
 10
397.19749999999982
 20
-476.65108470037268
 30
0.0
 11
401.19749999999971
 21
-476.65108470037268
 31
0.0
  0
LINE
  5
5AC
  8
DATA
  6
CONTINUOUS
 62
     7
 10
397.19749999999982
 20
-480.65108470037268
 30
0.0
 11
397.19749999999982
 21
-476.65108470037268
 31
0.0
  0
LINE
  5
5AD
  8
DATA
  6
CONTINUOUS
 62
     7
 10
411.6975000000001
 20
-470.65108470037279
 30
0.0
 11
411.6975000000001
 21
-466.65108470037279
 31
0.0
  0
LINE
  5
5AE
  8
DATA
  6
CONTINUOUS
 62
     7
 10
409.69749999999971
 20
-468.65108470037268
 30
0.0
 11
413.69749999999971
 21
-468.65108470037268
 31
0.0
  0
CIRCLE
  5
5AF
  8
DATA
  6
CONTINUOUS
 62
     7
 10
411.6975000000001
 20
-468.65108470037268
 30
0.0
 40
2.75
  0
ARC
  5
5B0
  8
DATA
  6
CONTINUOUS
 62
     7
 10
413.69749999999971
 20
-466.40108470037268
 30
0.0
 40
5.0
 50
0.0
 51
90.0
  0
ARC
  5
5B1
  8
DATA
  6
CONTINUOUS
 62
     7
 10
413.69749999999971
 20
-466.40108470037268
 30
0.0
 40
4.0
 50
0.0
 51
90.0
  0
LINE
  5
5B2
  8
DATA
  6
CONTINUOUS
 62
     7
 10
406.94749999999971
 20
-475.15108470037279
 30
0.0
 11
406.94749999999971
 21
-482.15108470037279
 31
0.0
  0
LINE
  5
5B3
  8
DATA
  6
CONTINUOUS
 62
     7
 10
408.44749999999971
 20
-474.65108470037291
 30
0.0
 11
408.44749999999971
 21
-506.65108470037268
 31
0.0
  0
LINE
  5
5B4
  8
DATA
  6
CONTINUOUS
 62
     7
 10
404.94749999999971
 20
-500.65108470037279
 30
0.0
 11
404.94749999999971
 21
-482.65108470037291
 31
0.0
  0
ARC
  5
5B5
  8
DATA
  6
CONTINUOUS
 62
     7
 10
526.2199999999998
 20
-421.62434960000002
 30
0.0
 40
3.1799999999998358
 50
0.0
 51
90.0
  0
LINE
  5
5B6
  8
DATA
  6
CONTINUOUS
 62
     7
 10
528.4650640302674
 20
-419.3742855697331
 30
0.0
 11
458.91250000000031
 21
-437.04323949963077
 31
0.0
  0
LINE
  5
5B7
  8
DATA
  6
CONTINUOUS
 62
     7
 10
395.19749999999982
 20
-561.37480525874366
 30
0.0
 11
402.19750000000022
 21
-561.37480525874366
 31
0.0
  0
TEXT
  5
5B8
  8
DATA
 62
     7
 10
394.36716601217682
 20
-572.90499095037273
 30
0.0
 40
1.653289794921875
  1
1
 41
0.8
 11
394.36716601217682
 21
-571.25170115545075
 31
0.0
 73
     3
  0
TEXT
  5
5B9
  8
DATA
 62
     7
 10
392.99457074798522
 20
-575.77758621456439
 30
0.0
 40
1.653289794921875
  1
2
 41
0.8
 11
392.99457074798522
 21
-574.12429641964252
 31
0.0
 73
     3
  0
TEXT
  5
5BA
  8
DATA
 62
     7
 10
390.69749999999982
 20
-577.27999095037273
 30
0.0
 40
1.653289794921875
  1
3
 41
0.8
 11
390.69749999999982
 21
-575.62670115545075
 31
0.0
 73
     3
  0
TEXT
  5
5BB
  8
DATA
 62
     7
 10
387.82249999999982
 20
-577.27758621456428
 30
0.0
 40
1.653289794921875
  1
4
 41
0.8
 11
387.82249999999982
 21
-575.62429641964252
 31
0.0
 73
     3
  0
TEXT
  5
5BC
  8
DATA
 62
     7
 10
388.11957074798522
 20
-566.27999095037239
 30
0.0
 40
1.653289794921875
  1
3
 41
0.8
 11
388.11957074798522
 21
-564.62670115545052
 31
0.0
 73
     3
  0
TEXT
  5
5BD
  8
DATA
 62
     7
 10
385.24457074798522
 20
-567.28239568618108
 30
0.0
 40
1.653289794921875
  1
2
 41
0.8
 11
385.24457074798522
 21
-565.6291058912592
 31
0.0
 73
     3
  0
TEXT
  5
5BE
  8
DATA
 62
     7
 10
383.44080378298798
 20
-570.15499095037273
 30
0.0
 40
1.653289794921875
  1
1
 41
0.8
 11
383.44080378298798
 21
-568.50170115545075
 31
0.0
 73
     3
  0
TEXT
  5
5BF
  8
DATA
 62
     7
 10
403.1974999999992
 20
-576.96944407537273
 30
0.0
 40
2.4799346923828121
  1
7.5W
 41
0.8
 11
403.1974999999992
 21
-574.48950938298992
 31
0.0
 73
     3
  0
TEXT
  5
5C0
  8
DATA
 62
     7
 10
403.19749999999971
 20
-581.62072351700135
 30
0.0
 40
2.4799346923828121
  1
15W
 41
0.8
 11
403.19749999999971
 21
-579.14078882461865
 31
0.0
 73
     3
  0
TEXT
  5
5C1
  8
DATA
 62
     7
 10
387.6975000000001
 20
-581.59444407537228
 30
0.0
 40
2.4799346923828121
  1
30W
 41
0.8
 11
387.6975000000001
 21
-579.11450938298947
 31
0.0
 73
     3
  0
TEXT
  5
5C2
  8
DATA
 62
     7
 10
371.02343959032982
 20
-581.62072351700135
 30
0.0
 40
2.4799346923828121
  1
60W
 41
0.8
 11
371.02343959032982
 21
-579.14078882461865
 31
0.0
 73
     3
  0
TEXT
  5
5C3
  8
DATA
 62
     7
 10
370.48447496432289
 20
-567.21944407537251
 30
0.0
 40
2.4799346923828121
  1
15W
 41
0.8
 11
370.48447496432289
 21
-564.7395093829897
 31
0.0
 73
     3
  0
CIRCLE
  5
5C4
  8
DATA
  6
CONTINUOUS
 62
     7
 10
391.94749999999982
 20
-567.00397038334245
 30
0.0
 40
0.5
  0
LINE
  5
5C5
  8
DATA
  6
CONTINUOUS
 62
     7
 10
393.44750000000022
 20
-570.90108470037273
 30
0.0
 11
425.69749999999971
 21
-570.90108470037273
 31
0.0
  0
LINE
  5
5C6
  8
DATA
  6
CONTINUOUS
 62
     7
 10
377.19750000000079
 20
-566.02608470037273
 30
0.0
 11
381.2537523131017
 21
-566.02608470037273
 31
0.0
  0
LINE
  5
5C7
  8
DATA
  6
CONTINUOUS
 62
     7
 10
398.14124768689823
 20
-575.77608470037273
 30
0.0
 11
402.1974999999992
 21
-575.77608470037273
 31
0.0
  0
LINE
  5
5C8
  8
DATA
  6
CONTINUOUS
 62
     7
 10
392.94509526419142
 20
-572.77608470037239
 30
0.0
 11
398.14124768689823
 21
-575.77608470037273
 31
0.0
  0
LINE
  5
5C9
  8
DATA
  6
CONTINUOUS
 62
     7
 10
381.2537523131017
 20
-566.02608470037273
 30
0.0
 11
386.4499047358081
 21
-569.02608470037251
 31
0.0
  0
LINE
  5
5CA
  8
DATA
  6
CONTINUOUS
 62
     7
 10
395.19749999999982
 20
-580.42736414200147
 30
0.0
 11
402.19750000000022
 21
-580.42736414200147
 31
0.0
  0
LINE
  5
5CB
  8
DATA
  6
CONTINUOUS
 62
     7
 10
391.57249999999982
 20
-574.14867996456439
 30
0.0
 11
395.19749999999982
 21
-580.42736414200147
 31
0.0
  0
LINE
  5
5CC
  8
DATA
  6
CONTINUOUS
 62
     7
 10
389.69749999999971
 20
-574.65108470037251
 30
0.0
 11
389.69749999999971
 21
-578.40108470037251
 31
0.0
  0
LINE
  5
5CD
  8
DATA
  6
CONTINUOUS
 62
     7
 10
389.69749999999971
 20
-563.40108470037239
 30
0.0
 11
389.69749999999971
 21
-567.15108470037273
 31
0.0
  0
LINE
  5
5CE
  8
DATA
  6
CONTINUOUS
 62
     7
 10
387.82249999999982
 20
-574.14867996456439
 30
0.0
 11
384.19750000000022
 21
-580.42736414200147
 31
0.0
  0
LINE
  5
5CF
  8
DATA
  6
CONTINUOUS
 62
     7
 10
384.19750000000022
 20
-580.42736414200147
 30
0.0
 11
377.19750000000022
 21
-580.42736414200147
 31
0.0
  0
CIRCLE
  5
5D0
  8
DATA
  6
CONTINUOUS
 62
     7
 10
389.69749999999971
 20
-570.90108470037273
 30
0.0
 40
3.75
  0
TEXT
  5
5D1
  8
DATA
 62
     7
 10
354.69749999999971
 20
-574.06221751287239
 30
0.0
 40
2.0666122436523442
  1
70 V LINE
 41
0.8
 11
354.69749999999971
 21
-571.99560526922005
 31
0.0
 73
     3
  0
TEXT
  5
5D2
  8
DATA
 62
     7
 10
354.69749999999971
 20
-570.06221751287273
 30
0.0
 40
2.0666122436523442
  1
100 V LINE
 41
0.8
 11
354.69749999999971
 21
-567.99560526922039
 31
0.0
 73
     3
  0
LINE
  5
5D3
  8
DATA
  6
CONTINUOUS
 62
     7
 10
353.69749999999982
 20
-570.90108470037273
 30
0.0
 11
385.94749999999971
 21
-570.90108470037273
 31
0.0
  0
TEXT
  5
5D4
  8
DATA
 62
     7
 10
387.6975000000001
 20
-562.59444407537217
 30
0.0
 40
2.4799346923828121
  1
60W
 41
0.8
 11
387.6975000000001
 21
-560.11450938298935
 31
0.0
 73
     3
  0
TEXT
  5
5D5
  8
DATA
 62
     7
 10
371.02343959032982
 20
-562.56816463374366
 30
0.0
 40
2.4799346923828121
  1
30W
 41
0.8
 11
371.02343959032982
 21
-560.08822994136085
 31
0.0
 73
     3
  0
LINE
  5
5D6
  8
DATA
  6
CONTINUOUS
 62
     7
 10
392.44749999999931
 20
-566.13794497955837
 30
0.0
 11
395.19749999999982
 21
-561.37480525874366
 31
0.0
  0
LINE
  5
5D7
  8
DATA
  6
CONTINUOUS
 62
     7
 10
384.19749999999982
 20
-561.37480525874366
 30
0.0
 11
387.82249999999982
 21
-567.65348943618096
 31
0.0
  0
LINE
  5
5D8
  8
DATA
  6
CONTINUOUS
 62
     7
 10
384.19749999999982
 20
-561.37480525874366
 30
0.0
 11
377.19749999999982
 21
-561.37480525874366
 31
0.0
  0
TEXT
  5
5D9
  8
DATA
 62
     7
 10
412.87396113278589
 20
-574.06221751287239
 30
0.0
 40
2.0666122436523442
  1
70 V LINE
 41
0.8
 11
412.87396113278589
 21
-571.99560526922005
 31
0.0
 73
     3
  0
TEXT
  5
5DA
  8
DATA
 62
     7
 10
411.68823895557051
 20
-570.06221751287273
 30
0.0
 40
2.0666122436523442
  1
100 V LINE
 41
0.8
 11
411.68823895557051
 21
-567.99560526922039
 31
0.0
 73
     3
  0
TEXT
  5
5DB
  8
DATA
 62
     7
 10
403.19749999999971
 20
-562.56816463374366
 30
0.0
 40
2.4799346923828121
  1
DO NOT USE
 41
0.8
 11
403.19749999999971
 21
-560.08822994136085
 31
0.0
 73
     3
  0
LINE
  5
5DC
  8
DATA
  6
CONTINUOUS
 62
     7
 10
353.69749999999982
 20
-583.40108470037273
 30
0.0
 11
353.69749999999982
 21
-558.40108470037273
 31
0.0
  0
LINE
  5
5DD
  8
DATA
  6
CONTINUOUS
 62
     7
 10
353.69749999999982
 20
-558.40108470037273
 30
0.0
 11
425.69749999999971
 21
-558.40108470037273
 31
0.0
  0
LINE
  5
5DE
  8
DATA
  6
CONTINUOUS
 62
     7
 10
425.69749999999971
 20
-558.40108470037273
 30
0.0
 11
425.69749999999971
 21
-583.40108470037273
 31
0.0
  0
LINE
  5
5DF
  8
DATA
  6
CONTINUOUS
 62
     7
 10
425.69749999999971
 20
-583.40108470037273
 30
0.0
 11
353.69749999999982
 21
-583.40108470037273
 31
0.0
  0
LINE
  5
5E0
  8
DATA
  6
CONTINUOUS
 62
     7
 10
375.89999077628772
 20
-734.43291126893484
 30
0.0
 11
378.81419741806212
 21
-727.48918433235986
 31
0.0
  0
LINE
  5
5E1
  8
DATA
  6
CONTINUOUS
 62
     7
 10
375.89999077628772
 20
-734.43291126893484
 30
0.0
 11
373.02176199428692
 21
-727.48918433235986
 31
0.0
  0
LINE
  5
5E2
  8
DATA
  6
CONTINUOUS
 62
     7
 10
380.18135608951212
 20
-727.48918433235986
 30
0.0
 11
380.18135608951212
 21
-744.00302196908467
 31
0.0
  0
LINE
  5
5E3
  8
DATA
  6
CONTINUOUS
 62
     7
 10
383.77914206701229
 20
-727.48918433235986
 30
0.0
 11
383.77914206701229
 21
-744.00302196908467
 31
0.0
  0
LINE
  5
5E4
  8
DATA
  6
CONTINUOUS
 62
     7
 10
385.64999077531229
 20
-727.48918433235986
 30
0.0
 11
385.64999077531229
 21
-746.9891843304099
 31
0.0
  0
LINE
  5
5E5
  8
DATA
  6
CONTINUOUS
 62
     7
 10
388.92397601483771
 20
-729.3240551808849
 30
0.0
 11
388.92397601483771
 21
-735.58420278173492
 31
0.0
  0
LINE
  5
5E6
  8
DATA
  6
CONTINUOUS
 62
     7
 10
395.93965867096222
 20
-735.22442418398464
 30
0.0
 11
395.93965867096222
 21
-730.61925813278503
 31
0.0
  0
LINE
  5
5E7
  8
DATA
  6
CONTINUOUS
 62
     7
 10
392.48578413256251
 20
-730.18752381548495
 30
0.0
 11
392.48578413256251
 21
-734.64877842758494
 31
0.0
  0
ARC
  5
5E8
  8
DATA
  6
CONTINUOUS
 62
     7
 10
379.45939197519323
 20
-741.98199088072624
 30
0.0
 40
5.028765774404917
 50
264.6909219999975
 51
323.99125800000257
  0
LINE
  5
5E9
  8
DATA
  6
CONTINUOUS
 62
     7
 10
377.44703874661258
 20
-740.87294816865995
 30
0.0
 11
377.44703874661258
 21
-744.00302196908467
 31
0.0
  0
LINE
  5
5EA
  8
DATA
  6
CONTINUOUS
 62
     7
 10
377.44703874661258
 20
-740.87294816865995
 30
0.0
 11
374.2090313668624
 21
-740.87294816865995
 31
0.0
  0
LINE
  5
5EB
  8
DATA
  6
CONTINUOUS
 62
     7
 10
374.2090313668624
 20
-740.87294816865995
 30
0.0
 11
374.2090313668624
 21
-744.00302196908467
 31
0.0
  0
ARC
  5
5EC
  8
DATA
  6
CONTINUOUS
 62
     7
 10
378.82104400477738
 20
-744.04520960745685
 30
0.0
 40
1.3609668817829501
 50
269.7118140000004
 51
1.7763039999948089
  0
ARC
  5
5ED
  8
DATA
  6
CONTINUOUS
 62
     7
 10
378.80735083134692
 20
-744.04520960745685
 30
0.0
 40
1.360966881782588
 50
178.22369600000471
 51
270.28818599999971
  0
ARC
  5
5EE
  8
DATA
  6
CONTINUOUS
 62
     7
 10
378.52878145868141
 20
-741.98199088072624
 30
0.0
 40
5.0287657744048007
 50
216.0087419999968
 51
275.3090779999975
  0
ARC
  5
5EF
  8
DATA
  6
CONTINUOUS
 62
     7
 10
376.4816340419116
 20
-743.89278220894835
 30
0.0
 40
2.2752722322444932
 50
182.77713899999799
 51
207.3598369999996
  0
CIRCLE
  5
5F0
  8
DATA
  6
CONTINUOUS
 62
     7
 10
376.09786900504969
 20
-737.13125075205994
 30
0.0
 40
1.8528597784124941
  0
LINE
  5
5F1
  8
DATA
  6
CONTINUOUS
 62
     7
 10
385.64999077531229
 20
-746.9891843304099
 30
0.0
 11
392.5217619923373
 21
-746.9891843304099
 31
0.0
  0
LINE
  5
5F2
  8
DATA
  6
CONTINUOUS
 62
     7
 10
388.92397601483771
 20
-745.15431348188474
 30
0.0
 11
390.68689114381232
 21
-745.15431348188474
 31
0.0
  0
LINE
  5
5F3
  8
DATA
  6
CONTINUOUS
 62
     7
 10
388.92397601483771
 20
-745.15431348188474
 30
0.0
 11
388.92397601483771
 21
-737.45505149003509
 31
0.0
  0
LINE
  5
5F4
  8
DATA
  6
CONTINUOUS
 62
     7
 10
388.92397601483771
 20
-737.45505149003509
 30
0.0
 11
390.68689114381232
 21
-737.45505149003509
 31
0.0
  0
LINE
  5
5F5
  8
DATA
  6
CONTINUOUS
 62
     7
 10
392.48578413256251
 20
-744.29084484728503
 30
0.0
 11
392.48578413256251
 21
-738.39047584418495
 31
0.0
  0
ARC
  5
5F6
  8
DATA
  6
CONTINUOUS
 62
     7
 10
381.50653939196258
 20
-743.89278220894835
 30
0.0
 40
2.2752722322447072
 50
332.64016299999992
 51
357.2228610000023
  0
LINE
  5
5F7
  8
DATA
  6
CONTINUOUS
 62
     7
 10
395.93965867096222
 20
-743.85911052998495
 30
0.0
 11
395.93965867096222
 21
-738.75025444193477
 31
0.0
  0
LINE
  5
5F8
  8
DATA
  6
CONTINUOUS
 62
     7
 10
388.92397601483771
 20
-735.58420278173492
 30
0.0
 11
390.68689114381232
 21
-735.58420278173492
 31
0.0
  0
ARC
  5
5F9
  8
DATA
  6
CONTINUOUS
 62
     7
 10
394.01668883720589
 20
-738.80585822421722
 30
0.0
 40
1.8912985237959521
 50
3.867274000004687
 51
88.361690000004714
  0
ARC
  5
5FA
  8
DATA
  6
CONTINUOUS
 62
     7
 10
394.01494750879328
 20
-735.02299134267651
 30
0.0
 40
1.89316577471845
 50
271.68941599999232
 51
356.07833300000181
  0
ARC
  5
5FB
  8
DATA
  6
CONTINUOUS
 62
     7
 10
392.23789308092643
 20
-743.28736837137046
 30
0.0
 40
3.7101088557175528
 50
273.83108900000479
 51
351.13515899999879
  0
POLYLINE
  5
5FC
  8
DATA
  6
CONTINUOUS
 62
     7
 66
     1
 10
0.0
 20
0.0
 30
0.0
 70
   128
  0
VERTEX
  5
848
  8
DATA
  6
CONTINUOUS
 62
     7
 10
390.68689114381232
 20
-735.5842027817348
 30
0.0
  0
VERTEX
  5
849
  8
DATA
  6
CONTINUOUS
 62
     7
 10
390.72430318001938
 20
-735.5842027817348
 30
0.0
  0
VERTEX
  5
84A
  8
DATA
  6
CONTINUOUS
 62
     7
 10
390.77148809912927
 20
-735.58300341090967
 30
0.0
  0
VERTEX
  5
84B
  8
DATA
  6
CONTINUOUS
 62
     7
 10
390.8176618814943
 20
-735.58136682868746
 30
0.0
  0
VERTEX
  5
84C
  8
DATA
  6
CONTINUOUS
 62
     7
 10
390.8628245271143
 20
-735.57929303506728
 30
0.0
  0
VERTEX
  5
84D
  8
DATA
  6
CONTINUOUS
 62
     7
 10
390.9069760359892
 20
-735.57678203005048
 30
0.0
  0
VERTEX
  5
84E
  8
DATA
  6
CONTINUOUS
 62
     7
 10
390.9501164081193
 20
-735.57383381363616
 30
0.0
  0
VERTEX
  5
84F
  8
DATA
  6
CONTINUOUS
 62
     7
 10
390.99224564350459
 20
-735.57044838582442
 30
0.0
  0
VERTEX
  5
850
  8
DATA
  6
CONTINUOUS
 62
     7
 10
391.03336374214479
 20
-735.5666257466155
 30
0.0
  0
VERTEX
  5
851
  8
DATA
  6
CONTINUOUS
 62
     7
 10
391.07347070404012
 20
-735.56236589600906
 30
0.0
  0
VERTEX
  5
852
  8
DATA
  6
CONTINUOUS
 62
     7
 10
391.11303921216239
 20
-735.55763209345776
 30
0.0
  0
VERTEX
  5
853
  8
DATA
  6
CONTINUOUS
 62
     7
 10
391.15254194948312
 20
-735.5523875984137
 30
0.0
  0
VERTEX
  5
854
  8
DATA
  6
CONTINUOUS
 62
     7
 10
391.19197891600271
 20
-735.54663241087712
 30
0.0
  0
VERTEX
  5
855
  8
DATA
  6
CONTINUOUS
 62
     7
 10
391.2313501117207
 20
-735.5403665308479
 30
0.0
  0
VERTEX
  5
856
  8
DATA
  6
CONTINUOUS
 62
     7
 10
391.27065553663749
 20
-735.53358995832582
 30
0.0
  0
VERTEX
  5
857
  8
DATA
  6
CONTINUOUS
 62
     7
 10
391.3098951907528
 20
-735.52630269331132
 30
0.0
  0
VERTEX
  5
858
  8
DATA
  6
CONTINUOUS
 62
     7
 10
391.3490690740669
 20
-735.51850473580384
 30
0.0
  0
VERTEX
  5
859
  8
DATA
  6
CONTINUOUS
 62
     7
 10
391.38817718657958
 20
-735.51019608580395
 30
0.0
  0
VERTEX
  5
85A
  8
DATA
  6
CONTINUOUS
 62
     7
 10
391.42707512059371
 20
-735.50137824886065
 30
0.0
  0
VERTEX
  5
85B
  8
DATA
  6
CONTINUOUS
 62
     7
 10
391.46561846841121
 20
-735.49205273052269
 30
0.0
  0
VERTEX
  5
85C
  8
DATA
  6
CONTINUOUS
 62
     7
 10
391.50380723003258
 20
-735.4822195307903
 30
0.0
  0
VERTEX
  5
85D
  8
DATA
  6
CONTINUOUS
 62
     7
 10
391.54164140545771
 20
-735.47187864966327
 30
0.0
  0
VERTEX
  5
85E
  8
DATA
  6
CONTINUOUS
 62
     7
 10
391.57912099468638
 20
-735.46103008714158
 30
0.0
  0
VERTEX
  5
85F
  8
DATA
  6
CONTINUOUS
 62
     7
 10
391.61624599771892
 20
-735.44967384322581
 30
0.0
  0
VERTEX
  5
860
  8
DATA
  6
CONTINUOUS
 62
     7
 10
391.65301641455522
 20
-735.4378099179155
 30
0.0
  0
VERTEX
  5
861
  8
DATA
  6
CONTINUOUS
 62
     7
 10
391.68943224519518
 20
-735.42543831121066
 30
0.0
  0
VERTEX
  5
862
  8
DATA
  6
CONTINUOUS
 62
     7
 10
391.72535184471252
 20
-735.41258975006735
 30
0.0
  0
VERTEX
  5
863
  8
DATA
  6
CONTINUOUS
 62
     7
 10
391.76063356818122
 20
-735.39929496144123
 30
0.0
  0
VERTEX
  5
864
  8
DATA
  6
CONTINUOUS
 62
     7
 10
391.79527741560082
 20
-735.38555394533262
 30
0.0
  0
VERTEX
  5
865
  8
DATA
  6
CONTINUOUS
 62
     7
 10
391.82928338697172
 20
-735.37136670174107
 30
0.0
  0
VERTEX
  5
866
  8
DATA
  6
CONTINUOUS
 62
     7
 10
391.86265148229393
 20
-735.35673323066715
 30
0.0
  0
VERTEX
  5
867
  8
DATA
  6
CONTINUOUS
 62
     7
 10
391.8953817015672
 20
-735.34165353211074
 30
0.0
  0
VERTEX
  5
868
  8
DATA
  6
CONTINUOUS
 62
     7
 10
391.92747404479172
 20
-735.32612760607117
 30
0.0
  0
VERTEX
  5
869
  8
DATA
  6
CONTINUOUS
 62
     7
 10
391.9589285119672
 20
-735.31015545254945
 30
0.0
  0
VERTEX
  5
86A
  8
DATA
  6
CONTINUOUS
 62
     7
 10
391.9903938645931
 20
-735.29318040529574
 30
0.0
  0
VERTEX
  5
86B
  8
DATA
  6
CONTINUOUS
 62
     7
 10
392.02251886416792
 20
-735.27464579806156
 30
0.0
  0
VERTEX
  5
86C
  8
DATA
  6
CONTINUOUS
 62
     7
 10
392.0553035106916
 20
-735.25455163084609
 30
0.0
  0
VERTEX
  5
86D
  8
DATA
  6
CONTINUOUS
 62
     7
 10
392.08874780416443
 20
-735.23289790364993
 30
0.0
  0
VERTEX
  5
86E
  8
DATA
  6
CONTINUOUS
 62
     7
 10
392.1228517445864
 20
-735.20968461647283
 30
0.0
  0
VERTEX
  5
86F
  8
DATA
  6
CONTINUOUS
 62
     7
 10
392.15761533195712
 20
-735.18491176931491
 30
0.0
  0
VERTEX
  5
870
  8
DATA
  6
CONTINUOUS
 62
     7
 10
392.19303856627693
 20
-735.15857936217606
 30
0.0
  0
VERTEX
  5
871
  8
DATA
  6
CONTINUOUS
 62
     7
 10
392.22912144754582
 20
-735.13068739505616
 30
0.0
  0
VERTEX
  5
872
  8
DATA
  6
CONTINUOUS
 62
     7
 10
392.26406543810913
 20
-735.10186444229612
 30
0.0
  0
VERTEX
  5
873
  8
DATA
  6
CONTINUOUS
 62
     7
 10
392.29607200031222
 20
-735.07273907823537
 30
0.0
  0
VERTEX
  5
874
  8
DATA
  6
CONTINUOUS
 62
     7
 10
392.32514113415522
 20
-735.04331130287414
 30
0.0
  0
VERTEX
  5
875
  8
DATA
  6
CONTINUOUS
 62
     7
 10
392.35127283963777
 20
-735.01358111621312
 30
0.0
  0
VERTEX
  5
876
  8
DATA
  6
CONTINUOUS
 62
     7
 10
392.37446711676051
 20
-734.98354851825104
 30
0.0
  0
VERTEX
  5
877
  8
DATA
  6
CONTINUOUS
 62
     7
 10
392.39472396552281
 20
-734.95321350898882
 30
0.0
  0
VERTEX
  5
878
  8
DATA
  6
CONTINUOUS
 62
     7
 10
392.4120433859249
 20
-734.92257608842601
 30
0.0
  0
VERTEX
  5
879
  8
DATA
  6
CONTINUOUS
 62
     7
 10
392.42642537796712
 20
-734.89163625656295
 30
0.0
  0
VERTEX
  5
87A
  8
DATA
  6
CONTINUOUS
 62
     7
 10
392.438651976453
 20
-734.86094092254973
 30
0.0
  0
VERTEX
  5
87B
  8
DATA
  6
CONTINUOUS
 62
     7
 10
392.44950521618711
 20
-734.83103699553635
 30
0.0
  0
VERTEX
  5
87C
  8
DATA
  6
CONTINUOUS
 62
     7
 10
392.45898509716932
 20
-734.80192447552292
 30
0.0
  0
VERTEX
  5
87D
  8
DATA
  6
CONTINUOUS
 62
     7
 10
392.46709161939953
 20
-734.77360336250945
 30
0.0
  0
VERTEX
  5
87E
  8
DATA
  6
CONTINUOUS
 62
     7
 10
392.47382478287801
 20
-734.74607365649581
 30
0.0
  0
VERTEX
  5
87F
  8
DATA
  6
CONTINUOUS
 62
     7
 10
392.47918458760449
 20
-734.71933535748212
 30
0.0
  0
VERTEX
  5
880
  8
DATA
  6
CONTINUOUS
 62
     7
 10
392.48317103357908
 20
-734.69338846546805
 30
0.0
  0
VERTEX
  5
881
  8
DATA
  6
CONTINUOUS
 62
     7
 10
392.48578412080178
 20
-734.66823298045438
 30
0.0
  0
VERTEX
  5
882
  8
DATA
  6
CONTINUOUS
 62
     7
 10
392.48578412080178
 20
-734.66823298045438
 30
0.0
  0
VERTEX
  5
883
  8
DATA
  6
CONTINUOUS
 62
     7
 10
392.485784132562
 20
-734.6487787216264
 30
0.0
  0
SEQEND
  5
884
  8
DATA
  6
CONTINUOUS
 62
     7
  0
POLYLINE
  5
63A
  8
DATA
  6
CONTINUOUS
 62
     7
 66
     1
 10
0.0
 20
0.0
 30
0.0
 70
   128
  0
VERTEX
  5
885
  8
DATA
  6
CONTINUOUS
 62
     7
 10
392.485784132562
 20
-738.39047613822629
 30
0.0
  0
VERTEX
  5
886
  8
DATA
  6
CONTINUOUS
 62
     7
 10
392.48578413892659
 20
-738.3799475655652
 30
0.0
  0
VERTEX
  5
887
  8
DATA
  6
CONTINUOUS
 62
     7
 10
392.48349621449569
 20
-738.34576963713096
 30
0.0
  0
VERTEX
  5
888
  8
DATA
  6
CONTINUOUS
 62
     7
 10
392.47944429161362
 20
-738.31264329901921
 30
0.0
  0
VERTEX
  5
889
  8
DATA
  6
CONTINUOUS
 62
     7
 10
392.47362837027998
 20
-738.28056855122952
 30
0.0
  0
VERTEX
  5
88A
  8
DATA
  6
CONTINUOUS
 62
     7
 10
392.46604845049512
 20
-738.24954539376165
 30
0.0
  0
VERTEX
  5
88B
  8
DATA
  6
CONTINUOUS
 62
     7
 10
392.4567045322587
 20
-738.2195738266164
 30
0.0
  0
VERTEX
  5
88C
  8
DATA
  6
CONTINUOUS
 62
     7
 10
392.44559661557088
 20
-738.19065384979319
 30
0.0
  0
VERTEX
  5
88D
  8
DATA
  6
CONTINUOUS
 62
     7
 10
392.43272470043189
 20
-738.16278546329204
 30
0.0
  0
VERTEX
  5
88E
  8
DATA
  6
CONTINUOUS
 62
     7
 10
392.41808878684151
 20
-738.13596866711362
 30
0.0
  0
VERTEX
  5
88F
  8
DATA
  6
CONTINUOUS
 62
     7
 10
392.40136824787868
 20
-738.10919767645203
 30
0.0
  0
VERTEX
  5
890
  8
DATA
  6
CONTINUOUS
 62
     7
 10
392.38224245662252
 20
-738.08146670650251
 30
0.0
  0
VERTEX
  5
891
  8
DATA
  6
CONTINUOUS
 62
     7
 10
392.36071141307298
 20
-738.05277575726495
 30
0.0
  0
VERTEX
  5
892
  8
DATA
  6
CONTINUOUS
 62
     7
 10
392.3367751172301
 20
-738.02312482873936
 30
0.0
  0
VERTEX
  5
893
  8
DATA
  6
CONTINUOUS
 62
     7
 10
392.31043356909379
 20
-737.99251392092572
 30
0.0
  0
VERTEX
  5
894
  8
DATA
  6
CONTINUOUS
 62
     7
 10
392.2816867686642
 20
-737.96094303382415
 30
0.0
  0
VERTEX
  5
895
  8
DATA
  6
CONTINUOUS
 62
     7
 10
392.25053471594123
 20
-737.92841216743454
 30
0.0
  0
VERTEX
  5
896
  8
DATA
  6
CONTINUOUS
 62
     7
 10
392.21697741092481
 20
-737.89492132175701
 30
0.0
  0
VERTEX
  5
897
  8
DATA
  6
CONTINUOUS
 62
     7
 10
392.18069502972668
 20
-737.8616852764618
 30
0.0
  0
VERTEX
  5
898
  8
DATA
  6
CONTINUOUS
 62
     7
 10
392.141367748459
 20
-737.82991881121825
 30
0.0
  0
VERTEX
  5
899
  8
DATA
  6
CONTINUOUS
 62
     7
 10
392.09899556712128
 20
-737.79962192602704
 30
0.0
  0
VERTEX
  5
89A
  8
DATA
  6
CONTINUOUS
 62
     7
 10
392.05357848571401
 20
-737.77079462088795
 30
0.0
  0
VERTEX
  5
89B
  8
DATA
  6
CONTINUOUS
 62
     7
 10
392.0051165042367
 20
-737.74343689580098
 30
0.0
  0
VERTEX
  5
89C
  8
DATA
  6
CONTINUOUS
 62
     7
 10
391.95360962268973
 20
-737.71754875076624
 30
0.0
  0
VERTEX
  5
89D
  8
DATA
  6
CONTINUOUS
 62
     7
 10
391.89905784107282
 20
-737.6931301857835
 30
0.0
  0
VERTEX
  5
89E
  8
DATA
  6
CONTINUOUS
 62
     7
 10
391.8414611593862
 20
-737.67018120085311
 30
0.0
  0
VERTEX
  5
89F
  8
DATA
  6
CONTINUOUS
 62
     7
 10
391.78364671931359
 20
-737.64877112116335
 30
0.0
  0
VERTEX
  5
8A0
  8
DATA
  6
CONTINUOUS
 62
     7
 10
391.72844166253901
 20
-737.62896927190366
 30
0.0
  0
VERTEX
  5
8A1
  8
DATA
  6
CONTINUOUS
 62
     7
 10
391.67584598906228
 20
-737.61077565307357
 30
0.0
  0
VERTEX
  5
8A2
  8
DATA
  6
CONTINUOUS
 62
     7
 10
391.62585969888369
 20
-737.59419026467378
 30
0.0
  0
VERTEX
  5
8A3
  8
DATA
  6
CONTINUOUS
 62
     7
 10
391.578482792003
 20
-737.57921310670395
 30
0.0
  0
VERTEX
  5
8A4
  8
DATA
  6
CONTINUOUS
 62
     7
 10
391.53371526842022
 20
-737.56584417916338
 30
0.0
  0
VERTEX
  5
8A5
  8
DATA
  6
CONTINUOUS
 62
     7
 10
391.49155712813553
 20
-737.55408348205299
 30
0.0
  0
VERTEX
  5
8A6
  8
DATA
  6
CONTINUOUS
 62
     7
 10
391.45200837114862
 20
-737.54393101537255
 30
0.0
  0
VERTEX
  5
8A7
  8
DATA
  6
CONTINUOUS
 62
     7
 10
391.41328554038
 20
-737.53478445105213
 30
0.0
  0
VERTEX
  5
8A8
  8
DATA
  6
CONTINUOUS
 62
     7
 10
391.3736051787497
 20
-737.52604146102169
 30
0.0
  0
VERTEX
  5
8A9
  8
DATA
  6
CONTINUOUS
 62
     7
 10
391.332967286258
 20
-737.51770204528157
 30
0.0
  0
VERTEX
  5
8AA
  8
DATA
  6
CONTINUOUS
 62
     7
 10
391.29137186290473
 20
-737.50976620383153
 30
0.0
  0
VERTEX
  5
8AB
  8
DATA
  6
CONTINUOUS
 62
     7
 10
391.2488189086896
 20
-737.50223393667147
 30
0.0
  0
VERTEX
  5
8AC
  8
DATA
  6
CONTINUOUS
 62
     7
 10
391.20530842361319
 20
-737.49510524380173
 30
0.0
  0
VERTEX
  5
8AD
  8
DATA
  6
CONTINUOUS
 62
     7
 10
391.16084040767493
 20
-737.48838012522231
 30
0.0
  0
VERTEX
  5
8AE
  8
DATA
  6
CONTINUOUS
 62
     7
 10
391.11541486087532
 20
-737.48205858093263
 30
0.0
  0
VERTEX
  5
8AF
  8
DATA
  6
CONTINUOUS
 62
     7
 10
391.06886926795568
 20
-737.47628180763593
 30
0.0
  0
VERTEX
  5
8B0
  8
DATA
  6
CONTINUOUS
 62
     7
 10
391.02104111365787
 20
-737.47119100203474
 30
0.0
  0
VERTEX
  5
8B1
  8
DATA
  6
CONTINUOUS
 62
     7
 10
390.97193039798202
 20
-737.46678616412953
 30
0.0
  0
VERTEX
  5
8B2
  8
DATA
  6
CONTINUOUS
 62
     7
 10
390.92153712092778
 20
-737.46306729391938
 30
0.0
  0
VERTEX
  5
8B3
  8
DATA
  6
CONTINUOUS
 62
     7
 10
390.86986128249572
 20
-737.46003439140509
 30
0.0
  0
VERTEX
  5
8B4
  8
DATA
  6
CONTINUOUS
 62
     7
 10
390.8169028826851
 20
-737.45768745658631
 30
0.0
  0
VERTEX
  5
8B5
  8
DATA
  6
CONTINUOUS
 62
     7
 10
390.76266192149637
 20
-737.45602648946294
 30
0.0
  0
VERTEX
  5
8B6
  8
DATA
  6
CONTINUOUS
 62
     7
 10
390.7071383989296
 20
-737.45505149003509
 30
0.0
  0
VERTEX
  5
8B7
  8
DATA
  6
CONTINUOUS
 62
     7
 10
390.7071383989296
 20
-737.45505149003509
 30
0.0
  0
VERTEX
  5
8B8
  8
DATA
  6
CONTINUOUS
 62
     7
 10
390.68689114381232
 20
-737.45505149003509
 30
0.0
  0
SEQEND
  5
8B9
  8
DATA
  6
CONTINUOUS
 62
     7
  0
POLYLINE
  5
670
  8
DATA
  6
CONTINUOUS
 62
     7
 66
     1
 10
0.0
 20
0.0
 30
0.0
 70
   128
  0
VERTEX
  5
8BA
  8
DATA
  6
CONTINUOUS
 62
     7
 10
390.68689114381232
 20
-745.15431348188474
 30
0.0
  0
VERTEX
  5
8BB
  8
DATA
  6
CONTINUOUS
 62
     7
 10
390.72430318001938
 20
-745.15431348188474
 30
0.0
  0
VERTEX
  5
8BC
  8
DATA
  6
CONTINUOUS
 62
     7
 10
390.79037307071411
 20
-745.15274980882702
 30
0.0
  0
VERTEX
  5
8BD
  8
DATA
  6
CONTINUOUS
 62
     7
 10
390.8542475397328
 20
-745.15039792801099
 30
0.0
  0
VERTEX
  5
8BE
  8
DATA
  6
CONTINUOUS
 62
     7
 10
390.91592658707572
 20
-745.14725783943663
 30
0.0
  0
VERTEX
  5
8BF
  8
DATA
  6
CONTINUOUS
 62
     7
 10
390.97541021274247
 20
-745.14332954310385
 30
0.0
  0
VERTEX
  5
8C0
  8
DATA
  6
CONTINUOUS
 62
     7
 10
391.03269841673352
 20
-745.13861303901297
 30
0.0
  0
VERTEX
  5
8C1
  8
DATA
  6
CONTINUOUS
 62
     7
 10
391.08779119904858
 20
-745.13310832716388
 30
0.0
  0
VERTEX
  5
8C2
  8
DATA
  6
CONTINUOUS
 62
     7
 10
391.14068855968782
 20
-745.12681540755614
 30
0.0
  0
VERTEX
  5
8C3
  8
DATA
  6
CONTINUOUS
 62
     7
 10
391.19139049865112
 20
-745.11973428019041
 30
0.0
  0
VERTEX
  5
8C4
  8
DATA
  6
CONTINUOUS
 62
     7
 10
391.24026673394718
 20
-745.11211323552084
 30
0.0
  0
VERTEX
  5
8C5
  8
DATA
  6
CONTINUOUS
 62
     7
 10
391.28768698358488
 20
-745.1042005640021
 30
0.0
  0
VERTEX
  5
8C6
  8
DATA
  6
CONTINUOUS
 62
     7
 10
391.33365124756438
 20
-745.09599626563465
 30
0.0
  0
VERTEX
  5
8C7
  8
DATA
  6
CONTINUOUS
 62
     7
 10
391.37815952588522
 20
-745.08750034041793
 30
0.0
  0
VERTEX
  5
8C8
  8
DATA
  6
CONTINUOUS
 62
     7
 10
391.42121181854799
 20
-745.07871278835239
 30
0.0
  0
VERTEX
  5
8C9
  8
DATA
  6
CONTINUOUS
 62
     7
 10
391.46280812555199
 20
-745.06963360943757
 30
0.0
  0
VERTEX
  5
8CA
  8
DATA
  6
CONTINUOUS
 62
     7
 10
391.50294844689768
 20
-745.0602628036736
 30
0.0
  0
VERTEX
  5
8CB
  8
DATA
  6
CONTINUOUS
 62
     7
 10
391.54163278258522
 20
-745.05060037106068
 30
0.0
  0
VERTEX
  5
8CC
  8
DATA
  6
CONTINUOUS
 62
     7
 10
391.57933860658608
 20
-745.04056850926895
 30
0.0
  0
VERTEX
  5
8CD
  8
DATA
  6
CONTINUOUS
 62
     7
 10
391.61654339287293
 20
-745.03008941596875
 30
0.0
  0
VERTEX
  5
8CE
  8
DATA
  6
CONTINUOUS
 62
     7
 10
391.65324714144521
 20
-745.01916309116041
 30
0.0
  0
VERTEX
  5
8CF
  8
DATA
  6
CONTINUOUS
 62
     7
 10
391.68944985230331
 20
-745.00778953484337
 30
0.0
  0
VERTEX
  5
8D0
  8
DATA
  6
CONTINUOUS
 62
     7
 10
391.72515152544707
 20
-744.99596874701786
 30
0.0
  0
VERTEX
  5
8D1
  8
DATA
  6
CONTINUOUS
 62
     7
 10
391.76035216087661
 20
-744.98370072768387
 30
0.0
  0
VERTEX
  5
8D2
  8
DATA
  6
CONTINUOUS
 62
     7
 10
391.79505175859168
 20
-744.97098547684163
 30
0.0
  0
VERTEX
  5
8D3
  8
DATA
  6
CONTINUOUS
 62
     7
 10
391.82925031859253
 20
-744.95782299449081
 30
0.0
  0
VERTEX
  5
8D4
  8
DATA
  6
CONTINUOUS
 62
     7
 10
391.8628190365705
 20
-744.94425498864837
 30
0.0
  0
VERTEX
  5
8D5
  8
DATA
  6
CONTINUOUS
 62
     7
 10
391.89562910821678
 20
-744.93032316733093
 30
0.0
  0
VERTEX
  5
8D6
  8
DATA
  6
CONTINUOUS
 62
     7
 10
391.92768053353132
 20
-744.91602753053883
 30
0.0
  0
VERTEX
  5
8D7
  8
DATA
  6
CONTINUOUS
 62
     7
 10
391.95897331251427
 20
-744.9013680782715
 30
0.0
  0
VERTEX
  5
8D8
  8
DATA
  6
CONTINUOUS
 62
     7
 10
391.98950744516571
 20
-744.88634481052907
 30
0.0
  0
VERTEX
  5
8D9
  8
DATA
  6
CONTINUOUS
 62
     7
 10
392.01928293148541
 20
-744.87095772731209
 30
0.0
  0
VERTEX
  5
8DA
  8
DATA
  6
CONTINUOUS
 62
     7
 10
392.04829977147341
 20
-744.85520682862
 30
0.0
  0
VERTEX
  5
8DB
  8
DATA
  6
CONTINUOUS
 62
     7
 10
392.07655796512972
 20
-744.83909211445302
 30
0.0
  0
VERTEX
  5
8DC
  8
DATA
  6
CONTINUOUS
 62
     7
 10
392.10397041491098
 20
-744.82267496889131
 30
0.0
  0
VERTEX
  5
8DD
  8
DATA
  6
CONTINUOUS
 62
     7
 10
392.13045002327402
 20
-744.80601677601464
 30
0.0
  0
VERTEX
  5
8DE
  8
DATA
  6
CONTINUOUS
 62
     7
 10
392.15599679021852
 20
-744.78911753582372
 30
0.0
  0
VERTEX
  5
8DF
  8
DATA
  6
CONTINUOUS
 62
     7
 10
392.18061071574448
 20
-744.77197724831785
 30
0.0
  0
VERTEX
  5
8E0
  8
DATA
  6
CONTINUOUS
 62
     7
 10
392.20429179985217
 20
-744.75459591349738
 30
0.0
  0
VERTEX
  5
8E1
  8
DATA
  6
CONTINUOUS
 62
     7
 10
392.22704004254149
 20
-744.73697353136242
 30
0.0
  0
VERTEX
  5
8E2
  8
DATA
  6
CONTINUOUS
 62
     7
 10
392.24885544381232
 20
-744.71911010191263
 30
0.0
  0
VERTEX
  5
8E3
  8
DATA
  6
CONTINUOUS
 62
     7
 10
392.26973800366483
 20
-744.70100562514835
 30
0.0
  0
VERTEX
  5
8E4
  8
DATA
  6
CONTINUOUS
 62
     7
 10
392.28984655036072
 20
-744.6824279456921
 30
0.0
  0
VERTEX
  5
8E5
  8
DATA
  6
CONTINUOUS
 62
     7
 10
392.30933991216159
 20
-744.66314490816569
 30
0.0
  0
VERTEX
  5
8E6
  8
DATA
  6
CONTINUOUS
 62
     7
 10
392.32821808906778
 20
-744.64315651256959
 30
0.0
  0
VERTEX
  5
8E7
  8
DATA
  6
CONTINUOUS
 62
     7
 10
392.34648108107922
 20
-744.62246275890357
 30
0.0
  0
VERTEX
  5
8E8
  8
DATA
  6
CONTINUOUS
 62
     7
 10
392.36412888819569
 20
-744.60106364716785
 30
0.0
  0
VERTEX
  5
8E9
  8
DATA
  6
CONTINUOUS
 62
     7
 10
392.38116151041771
 20
-744.57895917736255
 30
0.0
  0
VERTEX
  5
8EA
  8
DATA
  6
CONTINUOUS
 62
     7
 10
392.39757894774448
 20
-744.55614934948733
 30
0.0
  0
VERTEX
  5
8EB
  8
DATA
  6
CONTINUOUS
 62
     7
 10
392.41338120017679
 20
-744.53263416354207
 30
0.0
  0
VERTEX
  5
8EC
  8
DATA
  6
CONTINUOUS
 62
     7
 10
392.42807032329802
 20
-744.50825241813038
 30
0.0
  0
VERTEX
  5
8ED
  8
DATA
  6
CONTINUOUS
 62
     7
 10
392.44114837269279
 20
-744.4828429118561
 30
0.0
  0
VERTEX
  5
8EE
  8
DATA
  6
CONTINUOUS
 62
     7
 10
392.45261534836089
 20
-744.45640564471853
 30
0.0
  0
VERTEX
  5
8EF
  8
DATA
  6
CONTINUOUS
 62
     7
 10
392.46247125030249
 20
-744.42894061671825
 30
0.0
  0
VERTEX
  5
8F0
  8
DATA
  6
CONTINUOUS
 62
     7
 10
392.47071607851723
 20
-744.40044782785503
 30
0.0
  0
VERTEX
  5
8F1
  8
DATA
  6
CONTINUOUS
 62
     7
 10
392.47734983300552
 20
-744.37092727812865
 30
0.0
  0
VERTEX
  5
8F2
  8
DATA
  6
CONTINUOUS
 62
     7
 10
392.48237251376679
 20
-744.34037896753955
 30
0.0
  0
VERTEX
  5
8F3
  8
DATA
  6
CONTINUOUS
 62
     7
 10
392.48578412080178
 20
-744.30880289608729
 30
0.0
  0
VERTEX
  5
8F4
  8
DATA
  6
CONTINUOUS
 62
     7
 10
392.48578412080178
 20
-744.30880289608729
 30
0.0
  0
VERTEX
  5
8F5
  8
DATA
  6
CONTINUOUS
 62
     7
 10
392.485784132562
 20
-744.29084511870792
 30
0.0
  0
SEQEND
  5
8F6
  8
DATA
  6
CONTINUOUS
 62
     7
  0
LINE
  5
6AE
  8
DATA
  6
CONTINUOUS
 62
     7
 10
380.18135608951212
 20
-727.48918433235986
 30
0.0
 11
383.77914206701229
 21
-727.48918433235986
 31
0.0
  0
LINE
  5
6AF
  8
DATA
  6
CONTINUOUS
 62
     7
 10
373.02176199428692
 20
-727.48918433235986
 30
0.0
 11
378.81419741806212
 21
-727.48918433235986
 31
0.0
  0
LINE
  5
6B0
  8
DATA
  6
CONTINUOUS
 62
     7
 10
385.64999077531229
 20
-727.48918433235986
 30
0.0
 11
392.5217619923373
 21
-727.48918433235986
 31
0.0
  0
LINE
  5
6B1
  8
DATA
  6
CONTINUOUS
 62
     7
 10
388.92397601483771
 20
-729.3240551808849
 30
0.0
 11
390.68689114381232
 21
-729.3240551808849
 31
0.0
  0
ARC
  5
6B2
  8
DATA
  6
CONTINUOUS
 62
     7
 10
392.23732103295612
 20
-731.18532658291258
 30
0.0
 40
3.7044819184487561
 50
8.2269239999999382
 51
86.154222999998453
  0
POLYLINE
  5
6B3
  8
DATA
  6
CONTINUOUS
 62
     7
 66
     1
 10
0.0
 20
0.0
 30
0.0
 70
   128
  0
VERTEX
  5
8F7
  8
DATA
  6
CONTINUOUS
 62
     7
 10
392.485784132562
 20
-730.18752408690796
 30
0.0
  0
VERTEX
  5
8F8
  8
DATA
  6
CONTINUOUS
 62
     7
 10
392.48578413892659
 20
-730.17780540445142
 30
0.0
  0
VERTEX
  5
8F9
  8
DATA
  6
CONTINUOUS
 62
     7
 10
392.48349621449569
 20
-730.14625654743531
 30
0.0
  0
VERTEX
  5
8FA
  8
DATA
  6
CONTINUOUS
 62
     7
 10
392.47944429161362
 20
-730.11567838917813
 30
0.0
  0
VERTEX
  5
8FB
  8
DATA
  6
CONTINUOUS
 62
     7
 10
392.47362837027998
 20
-730.08607092967986
 30
0.0
  0
VERTEX
  5
8FC
  8
DATA
  6
CONTINUOUS
 62
     7
 10
392.46604845049512
 20
-730.05743416894063
 30
0.0
  0
VERTEX
  5
8FD
  8
DATA
  6
CONTINUOUS
 62
     7
 10
392.4567045322587
 20
-730.02976810696043
 30
0.0
  0
VERTEX
  5
8FE
  8
DATA
  6
CONTINUOUS
 62
     7
 10
392.44559661557088
 20
-730.00307274373881
 30
0.0
  0
VERTEX
  5
8FF
  8
DATA
  6
CONTINUOUS
 62
     7
 10
392.43272470043189
 20
-729.97734807927645
 30
0.0
  0
VERTEX
  5
900
  8
DATA
  6
CONTINUOUS
 62
     7
 10
392.41808878684151
 20
-729.95259411357313
 30
0.0
  0
VERTEX
  5
901
  8
DATA
  6
CONTINUOUS
 62
     7
 10
392.40136824787868
 20
-729.92788242988547
 30
0.0
  0
VERTEX
  5
902
  8
DATA
  6
CONTINUOUS
 62
     7
 10
392.38224245662252
 20
-729.90228461147069
 30
0.0
  0
VERTEX
  5
903
  8
DATA
  6
CONTINUOUS
 62
     7
 10
392.36071141307298
 20
-729.87580065832799
 30
0.0
  0
VERTEX
  5
904
  8
DATA
  6
CONTINUOUS
 62
     7
 10
392.3367751172301
 20
-729.84843057045816
 30
0.0
  0
VERTEX
  5
905
  8
DATA
  6
CONTINUOUS
 62
     7
 10
392.31043356909379
 20
-729.82017434786121
 30
0.0
  0
VERTEX
  5
906
  8
DATA
  6
CONTINUOUS
 62
     7
 10
392.2816867686642
 20
-729.79103199053645
 30
0.0
  0
VERTEX
  5
907
  8
DATA
  6
CONTINUOUS
 62
     7
 10
392.25053471594123
 20
-729.76100349848446
 30
0.0
  0
VERTEX
  5
908
  8
DATA
  6
CONTINUOUS
 62
     7
 10
392.21697741092481
 20
-729.73008887170533
 30
0.0
  0
VERTEX
  5
909
  8
DATA
  6
CONTINUOUS
 62
     7
 10
392.18069502972668
 20
-729.69940944527866
 30
0.0
  0
VERTEX
  5
90A
  8
DATA
  6
CONTINUOUS
 62
     7
 10
392.141367748459
 20
-729.67008655428492
 30
0.0
  0
VERTEX
  5
90B
  8
DATA
  6
CONTINUOUS
 62
     7
 10
392.09899556712128
 20
-729.64212019872355
 30
0.0
  0
VERTEX
  5
90C
  8
DATA
  6
CONTINUOUS
 62
     7
 10
392.05357848571401
 20
-729.61551037859545
 30
0.0
  0
VERTEX
  5
90D
  8
DATA
  6
CONTINUOUS
 62
     7
 10
392.0051165042367
 20
-729.59025709389971
 30
0.0
  0
VERTEX
  5
90E
  8
DATA
  6
CONTINUOUS
 62
     7
 10
391.95360962268973
 20
-729.56636034463656
 30
0.0
  0
VERTEX
  5
90F
  8
DATA
  6
CONTINUOUS
 62
     7
 10
391.89905784107282
 20
-729.54382013080658
 30
0.0
  0
VERTEX
  5
910
  8
DATA
  6
CONTINUOUS
 62
     7
 10
391.8414611593862
 20
-729.52263645240919
 30
0.0
  0
VERTEX
  5
911
  8
DATA
  6
CONTINUOUS
 62
     7
 10
391.78364671931359
 20
-729.50287330192657
 30
0.0
  0
VERTEX
  5
912
  8
DATA
  6
CONTINUOUS
 62
     7
 10
391.72844166253901
 20
-729.48459467184068
 30
0.0
  0
VERTEX
  5
913
  8
DATA
  6
CONTINUOUS
 62
     7
 10
391.67584598906228
 20
-729.46780056215164
 30
0.0
  0
VERTEX
  5
914
  8
DATA
  6
CONTINUOUS
 62
     7
 10
391.62585969888369
 20
-729.45249097285932
 30
0.0
  0
VERTEX
  5
915
  8
DATA
  6
CONTINUOUS
 62
     7
 10
391.578482792003
 20
-729.43866590396397
 30
0.0
  0
VERTEX
  5
916
  8
DATA
  6
CONTINUOUS
 62
     7
 10
391.53371526842022
 20
-729.42632535546522
 30
0.0
  0
VERTEX
  5
917
  8
DATA
  6
CONTINUOUS
 62
     7
 10
391.49155712813553
 20
-729.41546932736344
 30
0.0
  0
VERTEX
  5
918
  8
DATA
  6
CONTINUOUS
 62
     7
 10
391.45200837114862
 20
-729.40609781965804
 30
0.0
  0
VERTEX
  5
919
  8
DATA
  6
CONTINUOUS
 62
     7
 10
391.41328554038
 20
-729.39765483720851
 30
0.0
  0
VERTEX
  5
91A
  8
DATA
  6
CONTINUOUS
 62
     7
 10
391.3736051787497
 20
-729.38958438487305
 30
0.0
  0
VERTEX
  5
91B
  8
DATA
  6
CONTINUOUS
 62
     7
 10
391.332967286258
 20
-729.38188646265121
 30
0.0
  0
VERTEX
  5
91C
  8
DATA
  6
CONTINUOUS
 62
     7
 10
391.29137186290473
 20
-729.37456107054334
 30
0.0
  0
VERTEX
  5
91D
  8
DATA
  6
CONTINUOUS
 62
     7
 10
391.2488189086896
 20
-729.36760820854965
 30
0.0
  0
VERTEX
  5
91E
  8
DATA
  6
CONTINUOUS
 62
     7
 10
391.20530842361319
 20
-729.36102787666982
 30
0.0
  0
VERTEX
  5
91F
  8
DATA
  6
CONTINUOUS
 62
     7
 10
391.16084040767493
 20
-729.35482007490384
 30
0.0
  0
VERTEX
  5
920
  8
DATA
  6
CONTINUOUS
 62
     7
 10
391.11541486087532
 20
-729.34898480325194
 30
0.0
  0
VERTEX
  5
921
  8
DATA
  6
CONTINUOUS
 62
     7
 10
391.06886926795568
 20
-729.3436523971319
 30
0.0
  0
VERTEX
  5
922
  8
DATA
  6
CONTINUOUS
 62
     7
 10
391.02104111365787
 20
-729.33895319196176
 30
0.0
  0
VERTEX
  5
923
  8
DATA
  6
CONTINUOUS
 62
     7
 10
390.97193039798202
 20
-729.33488718774117
 30
0.0
  0
VERTEX
  5
924
  8
DATA
  6
CONTINUOUS
 62
     7
 10
390.92153712092778
 20
-729.33145438447082
 30
0.0
  0
VERTEX
  5
925
  8
DATA
  6
CONTINUOUS
 62
     7
 10
390.86986128249572
 20
-729.32865478214956
 30
0.0
  0
VERTEX
  5
926
  8
DATA
  6
CONTINUOUS
 62
     7
 10
390.8169028826851
 20
-729.32648838077819
 30
0.0
  0
VERTEX
  5
927
  8
DATA
  6
CONTINUOUS
 62
     7
 10
390.76266192149637
 20
-729.32495518035648
 30
0.0
  0
VERTEX
  5
928
  8
DATA
  6
CONTINUOUS
 62
     7
 10
390.7071383989296
 20
-729.3240551808849
 30
0.0
  0
VERTEX
  5
929
  8
DATA
  6
CONTINUOUS
 62
     7
 10
390.7071383989296
 20
-729.3240551808849
 30
0.0
  0
VERTEX
  5
92A
  8
DATA
  6
CONTINUOUS
 62
     7
 10
390.68689114381232
 20
-729.3240551808849
 30
0.0
  0
SEQEND
  5
92B
  8
DATA
  6
CONTINUOUS
 62
     7
  0
LINE
  5
6E9
  8
DATA
  6
CONTINUOUS
 62
     7
 10
397.99039667813679
 20
-746.9891843304099
 30
0.0
 11
397.99039667813679
 21
-727.48918433235986
 31
0.0
  0
LINE
  5
6EA
  8
DATA
  6
CONTINUOUS
 62
     7
 10
401.73209409473691
 20
-727.48918433235986
 30
0.0
 11
401.73209409473691
 21
-744.00302196908467
 31
0.0
  0
LINE
  5
6EB
  8
DATA
  6
CONTINUOUS
 62
     7
 10
407.7403966771621
 20
-746.9891843304099
 30
0.0
 11
397.99039667813679
 21
-746.9891843304099
 31
0.0
  0
LINE
  5
6EC
  8
DATA
  6
CONTINUOUS
 62
     7
 10
407.7403966771621
 20
-746.9891843304099
 30
0.0
 11
407.7403966771621
 21
-740.87294816865995
 31
0.0
  0
LINE
  5
6ED
  8
DATA
  6
CONTINUOUS
 62
     7
 10
407.7403966771621
 20
-740.87294816865995
 30
0.0
 11
404.46641143763742
 21
-740.87294816865995
 31
0.0
  0
LINE
  5
6EE
  8
DATA
  6
CONTINUOUS
 62
     7
 10
404.46641143763742
 20
-740.87294816865995
 30
0.0
 11
404.46641143763742
 21
-744.00302196908467
 31
0.0
  0
ARC
  5
6EF
  8
DATA
  6
CONTINUOUS
 62
     7
 10
403.10609935290222
 20
-744.04520960745685
 30
0.0
 40
1.3609668817829501
 50
269.7118140000004
 51
1.7763039999948089
  0
ARC
  5
6F0
  8
DATA
  6
CONTINUOUS
 62
     7
 10
403.09240617947211
 20
-744.04520960745685
 30
0.0
 40
1.360966881783042
 50
178.2236960000053
 51
270.28818599999971
  0
LINE
  5
6F1
  8
DATA
  6
CONTINUOUS
 62
     7
 10
397.99039667813679
 20
-727.48918433235986
 30
0.0
 11
401.73209409473691
 21
-727.48918433235986
 31
0.0
  0
LINE
  5
6F2
  8
DATA
  6
CONTINUOUS
 62
     7
 10
808.0
 20
-742.84232335022625
 30
0.0
 11
850.00000000000261
 21
-742.84232335022625
 31
0.0
  0
TEXT
  5
6F3
  8
DATA
 62
     7
 10
803.01799607306202
 20
-812.02343749999989
 30
0.0
 40
9.91973876953125
  1
1
 41
0.8
 11
803.01799607306202
 21
-802.10369873046864
 31
0.0
 73
     3
  0
TEXT
  5
6F4
  8
DATA
 62
     7
 10
794.78242448791195
 20
-829.25900908514996
 30
0.0
 40
9.91973876953125
  1
2
 41
0.8
 11
794.78242448791195
 21
-819.33927031561859
 31
0.0
 73
     3
  0
TEXT
  5
6F5
  8
DATA
 62
     7
 10
781.0
 20
-838.27343749999977
 30
0.0
 40
9.91973876953125
  1
3
 41
0.8
 11
781.0
 21
-828.35369873046852
 31
0.0
 73
     3
  0
TEXT
  5
6F6
  8
DATA
 62
     7
 10
763.75
 20
-838.25900908514996
 30
0.0
 40
9.91973876953125
  1
4
 41
0.8
 11
763.75
 21
-828.33927031561859
 31
0.0
 73
     3
  0
TEXT
  5
6F7
  8
DATA
 62
     7
 10
765.53242448791195
 20
-772.27343749999875
 30
0.0
 40
9.91973876953125
  1
3
 41
0.8
 11
765.53242448791195
 21
-762.35369873046739
 31
0.0
 73
     3
  0
TEXT
  5
6F8
  8
DATA
 62
     7
 10
748.28242448791195
 20
-778.28786591485016
 30
0.0
 40
9.91973876953125
  1
2
 41
0.8
 11
748.28242448791195
 21
-768.36812714531891
 31
0.0
 73
     3
  0
TEXT
  5
6F9
  8
DATA
 62
     7
 10
737.45982269792955
 20
-795.52343749999977
 30
0.0
 40
9.91973876953125
  1
1
 41
0.8
 11
737.45982269792955
 21
-785.60369873046864
 31
0.0
 73
     3
  0
TEXT
  5
6FA
  8
DATA
 62
     7
 10
855.99999999999704
 20
-836.41015624999977
 30
0.0
 40
14.87960815429687
  1
7.5W
 41
0.8
 11
855.99999999999704
 21
-821.5305480957029
 31
0.0
 73
     3
  0
TEXT
  5
6FB
  8
DATA
 62
     7
 10
856.0
 20
-864.31783289977227
 30
0.0
 40
14.87960815429687
  1
15W
 41
0.8
 11
856.0
 21
-849.43822474547551
 31
0.0
 73
     3
  0
TEXT
  5
6FC
  8
DATA
 62
     7
 10
763.00000000000273
 20
-864.16015624999727
 30
0.0
 40
14.87960815429687
  1
30W
 41
0.8
 11
763.00000000000273
 21
-849.2805480957004
 31
0.0
 73
     3
  0
TEXT
  5
6FD
  8
DATA
 62
     7
 10
662.95563754198076
 20
-864.31783289977227
 30
0.0
 40
14.87960815429687
  1
60W
 41
0.8
 11
662.95563754198076
 21
-849.43822474547551
 31
0.0
 73
     3
  0
TEXT
  5
6FE
  8
DATA
 62
     7
 10
659.72184978593941
 20
-777.91015624999864
 30
0.0
 40
14.87960815429687
  1
15W
 41
0.8
 11
659.72184978593941
 21
-763.03054809570176
 31
0.0
 73
     3
  0
CIRCLE
  5
6FF
  8
DATA
  6
CONTINUOUS
 62
     7
 10
788.49999999999989
 20
-776.61731409781896
 30
0.0
 40
3.0
  0
LINE
  5
700
  8
DATA
  6
CONTINUOUS
 62
     7
 10
797.50000000000273
 20
-800.0
 30
0.0
 11
991.0
 21
-800.0
 31
0.0
  0
LINE
  5
701
  8
DATA
  6
CONTINUOUS
 62
     7
 10
700.00000000000546
 20
-770.75
 30
0.0
 11
724.33751387861207
 21
-770.75
 31
0.0
  0
LINE
  5
702
  8
DATA
  6
CONTINUOUS
 62
     7
 10
825.66248612139043
 20
-829.25
 30
0.0
 11
849.99999999999693
 21
-829.25
 31
0.0
  0
LINE
  5
703
  8
DATA
  6
CONTINUOUS
 62
     7
 10
794.48557158514984
 20
-811.24999999999841
 30
0.0
 11
825.66248612139043
 21
-829.25
 31
0.0
  0
LINE
  5
704
  8
DATA
  6
CONTINUOUS
 62
     7
 10
724.33751387861207
 20
-770.75
 30
0.0
 11
755.5144284148497
 21
-788.74999999999852
 31
0.0
  0
LINE
  5
705
  8
DATA
  6
CONTINUOUS
 62
     7
 10
808.0
 20
-857.15767664977261
 30
0.0
 11
850.00000000000261
 21
-857.15767664977261
 31
0.0
  0
LINE
  5
706
  8
DATA
  6
CONTINUOUS
 62
     7
 10
786.24999999999989
 20
-819.48557158514996
 30
0.0
 11
808.0
 21
-857.15767664977261
 31
0.0
  0
LINE
  5
707
  8
DATA
  6
CONTINUOUS
 62
     7
 10
775.0
 20
-822.49999999999852
 30
0.0
 11
775.0
 21
-844.99999999999852
 31
0.0
  0
LINE
  5
708
  8
DATA
  6
CONTINUOUS
 62
     7
 10
775.0
 20
-754.99999999999852
 30
0.0
 11
775.0
 21
-777.5
 31
0.0
  0
LINE
  5
709
  8
DATA
  6
CONTINUOUS
 62
     7
 10
763.75
 20
-819.48557158514996
 30
0.0
 11
742.00000000000273
 21
-857.15767664977261
 31
0.0
  0
LINE
  5
70A
  8
DATA
  6
CONTINUOUS
 62
     7
 10
742.00000000000273
 20
-857.15767664977261
 30
0.0
 11
700.00000000000273
 21
-857.15767664977261
 31
0.0
  0
CIRCLE
  5
70B
  8
DATA
  6
CONTINUOUS
 62
     7
 10
775.0
 20
-800.0
 30
0.0
 40
22.5
  0
TEXT
  5
70C
  8
DATA
 62
     7
 10
565.0
 20
-818.96679687499864
 30
0.0
 40
12.399673461914061
  1
70 V LINE
 41
0.8
 11
565.0
 21
-806.56712341308457
 31
0.0
 73
     3
  0
TEXT
  5
70D
  8
DATA
 62
     7
 10
565.0
 20
-794.966796875
 30
0.0
 40
12.399673461914061
  1
100 V LINE
 41
0.8
 11
565.0
 21
-782.56712341308594
 31
0.0
 73
     3
  0
LINE
  5
70E
  8
DATA
  6
CONTINUOUS
 62
     7
 10
559.0
 20
-800.0
 30
0.0
 11
752.5
 21
-800.0
 31
0.0
  0
TEXT
  5
70F
  8
DATA
 62
     7
 10
763.00000000000273
 20
-750.16015624999716
 30
0.0
 40
14.87960815429687
  1
60W
 41
0.8
 11
763.00000000000273
 21
-735.2805480957004
 31
0.0
 73
     3
  0
TEXT
  5
710
  8
DATA
 62
     7
 10
662.95563754198076
 20
-750.00247960022614
 30
0.0
 40
14.87960815429687
  1
30W
 41
0.8
 11
662.95563754198076
 21
-735.12287144592915
 31
0.0
 73
     3
  0
LINE
  5
711
  8
DATA
  6
CONTINUOUS
 62
     7
 10
791.49999999999704
 20
-771.4211616751129
 30
0.0
 11
808.0
 21
-742.84232335022625
 31
0.0
  0
LINE
  5
712
  8
DATA
  6
CONTINUOUS
 62
     7
 10
742.0
 20
-742.84232335022625
 30
0.0
 11
763.75
 21
-780.5144284148497
 31
0.0
  0
LINE
  5
713
  8
DATA
  6
CONTINUOUS
 62
     7
 10
742.0
 20
-742.84232335022625
 30
0.0
 11
700.0
 21
-742.84232335022625
 31
0.0
  0
TEXT
  5
714
  8
DATA
 62
     7
 10
914.05876679671815
 20
-818.96679687499864
 30
0.0
 40
12.399673461914061
  1
70 V LINE
 41
0.8
 11
914.05876679671815
 21
-806.56712341308457
 31
0.0
 73
     3
  0
TEXT
  5
715
  8
DATA
 62
     7
 10
906.94443373342415
 20
-794.966796875
 30
0.0
 40
12.399673461914061
  1
100 V LINE
 41
0.8
 11
906.94443373342415
 21
-782.56712341308594
 31
0.0
 73
     3
  0
TEXT
  5
716
  8
DATA
 62
     7
 10
856.0
 20
-750.00247960022614
 30
0.0
 40
14.87960815429687
  1
DO NOT USE
 41
0.8
 11
856.0
 21
-735.12287144592915
 31
0.0
 73
     3
  0
LINE
  5
717
  8
DATA
  6
CONTINUOUS
 62
     7
 10
559.0
 20
-875.0
 30
0.0
 11
559.0
 21
-725.0
 31
0.0
  0
LINE
  5
718
  8
DATA
  6
CONTINUOUS
 62
     7
 10
559.0
 20
-725.0
 30
0.0
 11
991.0
 21
-725.0
 31
0.0
  0
LINE
  5
719
  8
DATA
  6
CONTINUOUS
 62
     7
 10
991.0
 20
-725.0
 30
0.0
 11
991.0
 21
-875.0
 31
0.0
  0
LINE
  5
71A
  8
DATA
  6
CONTINUOUS
 62
     7
 10
991.0
 20
-875.0
 30
0.0
 11
559.0
 21
-875.0
 31
0.0
  0
ENDSEC
  0
EOF
